  0
SECTION
  2
HEADER
  9
$ACADVER
  1
AC1012
  9
$DWGCODEPAGE
  3
ansi_936
  9
$INSBASE
 10
0.0
 20
0.0
 30
0.0
  9
$EXTMIN
 10
1.000000000000000E+20
 20
1.000000000000000E+20
 30
1.000000000000000E+20
  9
$EXTMAX
 10
-1.000000000000000E+20
 20
-1.000000000000000E+20
 30
-1.000000000000000E+20
  9
$LIMMIN
 10
0.0
 20
0.0
  9
$LIMMAX
 10
12.0
 20
9.0
  9
$ORTHOMODE
 70
     0
  9
$REGENMODE
 70
     1
  9
$FILLMODE
 70
     1
  9
$QTEXTMODE
 70
     0
  9
$MIRRTEXT
 70
     1
  9
$DRAGMODE
 70
     2
  9
$LTSCALE
 40
1.0
  9
$OSMODE
 70
    37
  9
$ATTMODE
 70
     1
  9
$TEXTSIZE
 40
0.2
  9
$TRACEWID
 40
0.05
  9
$TEXTSTYLE
  7
STANDARD
  9
$CLAYER
  8
0
  9
$CELTYPE
  6
BYLAYER
  9
$CECOLOR
 62
   256
  9
$CELTSCALE
 40
1.0
  9
$DELOBJ
 70
     1
  9
$DISPSILH
 70
     0
  9
$DIMSCALE
 40
1.0
  9
$DIMASZ
 40
0.18
  9
$DIMEXO
 40
0.0625
  9
$DIMDLI
 40
0.38
  9
$DIMRND
 40
0.0
  9
$DIMDLE
 40
0.0
  9
$DIMEXE
 40
0.18
  9
$DIMTP
 40
0.0
  9
$DIMTM
 40
0.0
  9
$DIMTXT
 40
0.18
  9
$DIMCEN
 40
0.09
  9
$DIMTSZ
 40
0.0
  9
$DIMTOL
 70
     0
  9
$DIMLIM
 70
     0
  9
$DIMTIH
 70
     1
  9
$DIMTOH
 70
     1
  9
$DIMSE1
 70
     0
  9
$DIMSE2
 70
     0
  9
$DIMTAD
 70
     0
  9
$DIMZIN
 70
     0
  9
$DIMBLK
  1

  9
$DIMASO
 70
     1
  9
$DIMSHO
 70
     1
  9
$DIMPOST
  1

  9
$DIMAPOST
  1

  9
$DIMALT
 70
     0
  9
$DIMALTD
 70
     2
  9
$DIMALTF
 40
25.4
  9
$DIMLFAC
 40
1.0
  9
$DIMTOFL
 70
     0
  9
$DIMTVP
 40
0.0
  9
$DIMTIX
 70
     0
  9
$DIMSOXD
 70
     0
  9
$DIMSAH
 70
     0
  9
$DIMBLK1
  1

  9
$DIMBLK2
  1

  9
$DIMSTYLE
  2
STANDARD
  9
$DIMCLRD
 70
     0
  9
$DIMCLRE
 70
     0
  9
$DIMCLRT
 70
     0
  9
$DIMTFAC
 40
1.0
  9
$DIMGAP
 40
0.09
  9
$DIMJUST
 70
     0
  9
$DIMSD1
 70
     0
  9
$DIMSD2
 70
     0
  9
$DIMTOLJ
 70
     1
  9
$DIMTZIN
 70
     0
  9
$DIMALTZ
 70
     0
  9
$DIMALTTZ
 70
     0
  9
$DIMFIT
 70
     3
  9
$DIMUPT
 70
     0
  9
$DIMUNIT
 70
     2
  9
$DIMDEC
 70
     4
  9
$DIMTDEC
 70
     4
  9
$DIMALTU
 70
     2
  9
$DIMALTTD
 70
     2
  9
$DIMTXSTY
  7
STANDARD
  9
$DIMAUNIT
 70
     0
  9
$LUNITS
 70
     2
  9
$LUPREC
 70
     4
  9
$SKETCHINC
 40
0.1
  9
$FILLETRAD
 40
0.5
  9
$AUNITS
 70
     0
  9
$AUPREC
 70
     0
  9
$MENU
  1
.
  9
$ELEVATION
 40
0.0
  9
$PELEVATION
 40
0.0
  9
$THICKNESS
 40
0.0
  9
$LIMCHECK
 70
     0
  9
$CHAMFERA
 40
0.5
  9
$CHAMFERB
 40
0.5
  9
$CHAMFERC
 40
1.0
  9
$CHAMFERD
 40
0.0
  9
$SKPOLY
 70
     0
  9
$TDCREATE
 40
2458958.769655799
  9
$TDUPDATE
 40
2458958.769656007
  9
$TDINDWG
 40
0.0000000116
  9
$TDUSRTIMER
 40
0.0000000116
  9
$USRTIMER
 70
     1
  9
$ANGBASE
 50
0.0
  9
$ANGDIR
 70
     0
  9
$PDMODE
 70
     0
  9
$PDSIZE
 40
0.0
  9
$PLINEWID
 40
0.0
  9
$COORDS
 70
     1
  9
$SPLFRAME
 70
     0
  9
$SPLINETYPE
 70
     6
  9
$SPLINESEGS
 70
     8
  9
$ATTDIA
 70
     0
  9
$ATTREQ
 70
     1
  9
$HANDLING
 70
     1
  9
$HANDSEED
  5
5B7
  9
$SURFTAB1
 70
     6
  9
$SURFTAB2
 70
     6
  9
$SURFTYPE
 70
     6
  9
$SURFU
 70
     6
  9
$SURFV
 70
     6
  9
$UCSNAME
  2

  9
$UCSORG
 10
0.0
 20
0.0
 30
0.0
  9
$UCSXDIR
 10
1.0
 20
0.0
 30
0.0
  9
$UCSYDIR
 10
0.0
 20
1.0
 30
0.0
  9
$PUCSNAME
  2

  9
$PUCSORG
 10
0.0
 20
0.0
 30
0.0
  9
$PUCSXDIR
 10
1.0
 20
0.0
 30
0.0
  9
$PUCSYDIR
 10
0.0
 20
1.0
 30
0.0
  9
$USERI1
 70
     0
  9
$USERI2
 70
     0
  9
$USERI3
 70
     0
  9
$USERI4
 70
     0
  9
$USERI5
 70
     0
  9
$USERR1
 40
0.0
  9
$USERR2
 40
0.0
  9
$USERR3
 40
0.0
  9
$USERR4
 40
0.0
  9
$USERR5
 40
0.0
  9
$WORLDVIEW
 70
     1
  9
$SHADEDGE
 70
     3
  9
$SHADEDIF
 70
    70
  9
$TILEMODE
 70
     1
  9
$MAXACTVP
 70
    64
  9
$PINSBASE
 10
0.0
 20
0.0
 30
0.0
  9
$PLIMCHECK
 70
     0
  9
$PEXTMIN
 10
1.000000000000000E+20
 20
1.000000000000000E+20
 30
1.000000000000000E+20
  9
$PEXTMAX
 10
-1.000000000000000E+20
 20
-1.000000000000000E+20
 30
-1.000000000000000E+20
  9
$PLIMMIN
 10
0.0
 20
0.0
  9
$PLIMMAX
 10
12.0
 20
9.0
  9
$UNITMODE
 70
     0
  9
$VISRETAIN
 70
     1
  9
$PLINEGEN
 70
     0
  9
$PSLTSCALE
 70
     1
  9
$TREEDEPTH
 70
  3020
  9
$PICKSTYLE
 70
     1
  9
$CMLSTYLE
  2
STANDARD
  9
$CMLJUST
 70
     0
  9
$CMLSCALE
 40
1.0
  9
$SAVEIMAGES
 70
     1
  0
ENDSEC
  0
SECTION
  2
CLASSES
  0
CLASS
  1
ACDBDICTIONARYWDFLT
  2
AcDbDictionaryWithDefault
  3
ObjectDBX Classes
 90
    32768
280
     0
281
     0
  0
CLASS
  1
VISUALSTYLE
  2
AcDbVisualStyle
  3
ObjectDBX Classes
 90
     4095
280
     0
281
     0
  0
CLASS
  1
MATERIAL
  2
AcDbMaterial
  3
ObjectDBX Classes
 90
     1153
280
     0
281
     0
  0
CLASS
  1
SUN
  2
AcDbSun
  3
SCENEOE
 90
     1024
280
     0
281
     0
  0
CLASS
  1
DICTIONARYVAR
  2
AcDbDictionaryVar
  3
ObjectDBX Classes
 90
        0
280
     0
281
     0
  0
CLASS
  1
XRECORD
  2
AcDbXrecord
  3
AutoCAD 2000
 90
    32768
280
     0
281
     0
  0
CLASS
  1
LWPOLYLINE
  2
AcDbPolyline
  3
AutoCAD 2000
 90
    32768
280
     0
281
     1
  0
CLASS
  1
HATCH
  2
AcDbHatch
  3
AutoCAD 2000
 90
    32768
280
     0
281
     1
  0
CLASS
  1
ACDBPLACEHOLDER
  2
AcDbPlaceHolder
  3
ObjectDBX Classes
 90
        0
280
     0
281
     0
  0
CLASS
  1
LAYOUT
  2
AcDbLayout
  3
ObjectDBX Classes
 90
        0
280
     0
281
     0
  0
ENDSEC
  0
SECTION
  2
TABLES
  0
TABLE
  2
VPORT
  5
8
330
0
100
AcDbSymbolTable
 70
     1
  0
VPORT
  5
29
330
8
100
AcDbSymbolTableRecord
100
AcDbViewportTableRecord
  2
*ACTIVE
 70
     0
 10
0.0
 20
0.0
 11
1.0
 21
1.0
 12
0.0
 22
0.0
 13
0.0
 23
0.0
 14
0.5
 24
0.5
 15
0.5
 25
0.5
 16
0.0
 26
0.0
 36
1.0
 17
105.0007777515277
 27
148.5000416295417
 37
0.0
 40
297.0000832590835
 41
0.7070757462376325
 42
50.0
 43
0.0
 44
0.0
 50
0.0
 51
0.0
 71
     0
 72
   100
 73
     1
 74
     3
 75
     0
 76
     0
 77
     0
 78
     0
  0
ENDTAB
  0
TABLE
  2
LTYPE
  5
5
330
0
100
AcDbSymbolTable
 70
     1
  0
LTYPE
  5
14
330
5
100
AcDbSymbolTableRecord
100
AcDbLinetypeTableRecord
  2
BYBLOCK
 70
     0
  3

 72
    65
 73
     0
 40
0.0
  0
LTYPE
  5
15
330
5
100
AcDbSymbolTableRecord
100
AcDbLinetypeTableRecord
  2
BYLAYER
 70
     0
  3

 72
    65
 73
     0
 40
0.0
  0
LTYPE
  5
16
330
5
100
AcDbSymbolTableRecord
100
AcDbLinetypeTableRecord
  2
CONTINUOUS
 70
     0
  3
Solid line
 72
    65
 73
     0
 40
0.0
  0
ENDTAB
  0
TABLE
  2
LAYER
  5
2
330
0
100
AcDbSymbolTable
 70
     1
  0
LAYER
  5
10
330
2
100
AcDbSymbolTableRecord
100
AcDbLayerTableRecord
  2
0
 70
     0
 62
     7
  6
CONTINUOUS
  0
ENDTAB
  0
TABLE
  2
STYLE
  5
3
330
0
100
AcDbSymbolTable
 70
     1
  0
STYLE
  5
11
330
3
100
AcDbSymbolTableRecord
100
AcDbTextStyleTableRecord
  2
STANDARD
 70
     0
 40
0.0
 41
1.0
 50
0.0
 71
     0
 42
0.2
  3
txt
  4

  0
ENDTAB
  0
TABLE
  2
VIEW
  5
6
330
0
100
AcDbSymbolTable
 70
     0
  0
ENDTAB
  0
TABLE
  2
UCS
  5
7
330
0
100
AcDbSymbolTable
 70
     0
  0
ENDTAB
  0
TABLE
  2
APPID
  5
9
330
0
100
AcDbSymbolTable
 70
     1
  0
APPID
  5
12
330
9
100
AcDbSymbolTableRecord
100
AcDbRegAppTableRecord
  2
ACAD
 70
     0
  0
ENDTAB
  0
TABLE
  2
DIMSTYLE
  5
A
330
0
100
AcDbSymbolTable
 70
     1
  0
DIMSTYLE
105
27
330
A
100
AcDbSymbolTableRecord
100
AcDbDimStyleTableRecord
  2
STANDARD
 70
     0
  3

  4

  5

  6

  7

 40
1.0
 41
0.18
 42
0.0625
 43
0.38
 44
0.18
 45
0.0
 46
0.0
 47
0.0
 48
0.0
140
0.18
141
0.09
142
0.0
143
25.4
144
1.0
145
0.0
146
1.0
147
0.09
 71
     0
 72
     0
 73
     1
 74
     1
 75
     0
 76
     0
 77
     0
 78
     0
170
     0
171
     2
172
     0
173
     0
174
     0
175
     0
176
     0
177
     0
178
     0
270
     2
271
     4
272
     4
273
     2
274
     2
340
11
275
     0
280
     0
281
     0
282
     0
283
     1
284
     0
285
     0
286
     0
287
     3
288
     0
  0
ENDTAB
  0
TABLE
  2
BLOCK_RECORD
  5
1
330
0
100
AcDbSymbolTable
 70
   151
  0
BLOCK_RECORD
  5
1F
330
1
100
AcDbSymbolTableRecord
100
AcDbBlockTableRecord
  2
*MODEL_SPACE
  0
BLOCK_RECORD
  5
1B
330
1
100
AcDbSymbolTableRecord
100
AcDbBlockTableRecord
  2
*PAPER_SPACE
  0
BLOCK_RECORD
  5
40
330
1
100
AcDbSymbolTableRecord
100
AcDbBlockTableRecord
  2
BLOCK_2
  0
BLOCK_RECORD
  5
4B
330
1
100
AcDbSymbolTableRecord
100
AcDbBlockTableRecord
  2
BLOCK_3
  0
BLOCK_RECORD
  5
56
330
1
100
AcDbSymbolTableRecord
100
AcDbBlockTableRecord
  2
BLOCK_4
  0
BLOCK_RECORD
  5
61
330
1
100
AcDbSymbolTableRecord
100
AcDbBlockTableRecord
  2
BLOCK_5
  0
BLOCK_RECORD
  5
6C
330
1
100
AcDbSymbolTableRecord
100
AcDbBlockTableRecord
  2
BLOCK_6
  0
BLOCK_RECORD
  5
77
330
1
100
AcDbSymbolTableRecord
100
AcDbBlockTableRecord
  2
BLOCK_7
  0
BLOCK_RECORD
  5
82
330
1
100
AcDbSymbolTableRecord
100
AcDbBlockTableRecord
  2
BLOCK_8
  0
BLOCK_RECORD
  5
8D
330
1
100
AcDbSymbolTableRecord
100
AcDbBlockTableRecord
  2
BLOCK_9
  0
BLOCK_RECORD
  5
98
330
1
100
AcDbSymbolTableRecord
100
AcDbBlockTableRecord
  2
BLOCK_10
  0
BLOCK_RECORD
  5
A3
330
1
100
AcDbSymbolTableRecord
100
AcDbBlockTableRecord
  2
BLOCK_11
  0
BLOCK_RECORD
  5
AE
330
1
100
AcDbSymbolTableRecord
100
AcDbBlockTableRecord
  2
BLOCK_12
  0
BLOCK_RECORD
  5
B9
330
1
100
AcDbSymbolTableRecord
100
AcDbBlockTableRecord
  2
BLOCK_13
  0
BLOCK_RECORD
  5
C4
330
1
100
AcDbSymbolTableRecord
100
AcDbBlockTableRecord
  2
BLOCK_14
  0
BLOCK_RECORD
  5
CF
330
1
100
AcDbSymbolTableRecord
100
AcDbBlockTableRecord
  2
BLOCK_15
  0
BLOCK_RECORD
  5
DA
330
1
100
AcDbSymbolTableRecord
100
AcDbBlockTableRecord
  2
BLOCK_16
  0
BLOCK_RECORD
  5
E5
330
1
100
AcDbSymbolTableRecord
100
AcDbBlockTableRecord
  2
BLOCK_17
  0
BLOCK_RECORD
  5
F0
330
1
100
AcDbSymbolTableRecord
100
AcDbBlockTableRecord
  2
BLOCK_18
  0
BLOCK_RECORD
  5
FB
330
1
100
AcDbSymbolTableRecord
100
AcDbBlockTableRecord
  2
BLOCK_19
  0
BLOCK_RECORD
  5
106
330
1
100
AcDbSymbolTableRecord
100
AcDbBlockTableRecord
  2
BLOCK_20
  0
BLOCK_RECORD
  5
111
330
1
100
AcDbSymbolTableRecord
100
AcDbBlockTableRecord
  2
BLOCK_21
  0
BLOCK_RECORD
  5
11C
330
1
100
AcDbSymbolTableRecord
100
AcDbBlockTableRecord
  2
BLOCK_22
  0
BLOCK_RECORD
  5
127
330
1
100
AcDbSymbolTableRecord
100
AcDbBlockTableRecord
  2
BLOCK_23
  0
BLOCK_RECORD
  5
132
330
1
100
AcDbSymbolTableRecord
100
AcDbBlockTableRecord
  2
BLOCK_24
  0
BLOCK_RECORD
  5
13D
330
1
100
AcDbSymbolTableRecord
100
AcDbBlockTableRecord
  2
BLOCK_25
  0
BLOCK_RECORD
  5
148
330
1
100
AcDbSymbolTableRecord
100
AcDbBlockTableRecord
  2
BLOCK_26
  0
BLOCK_RECORD
  5
153
330
1
100
AcDbSymbolTableRecord
100
AcDbBlockTableRecord
  2
BLOCK_27
  0
BLOCK_RECORD
  5
15E
330
1
100
AcDbSymbolTableRecord
100
AcDbBlockTableRecord
  2
BLOCK_28
  0
BLOCK_RECORD
  5
169
330
1
100
AcDbSymbolTableRecord
100
AcDbBlockTableRecord
  2
BLOCK_29
  0
BLOCK_RECORD
  5
174
330
1
100
AcDbSymbolTableRecord
100
AcDbBlockTableRecord
  2
BLOCK_30
  0
BLOCK_RECORD
  5
17F
330
1
100
AcDbSymbolTableRecord
100
AcDbBlockTableRecord
  2
BLOCK_31
  0
BLOCK_RECORD
  5
18A
330
1
100
AcDbSymbolTableRecord
100
AcDbBlockTableRecord
  2
BLOCK_32
  0
BLOCK_RECORD
  5
195
330
1
100
AcDbSymbolTableRecord
100
AcDbBlockTableRecord
  2
BLOCK_33
  0
BLOCK_RECORD
  5
1C0
330
1
100
AcDbSymbolTableRecord
100
AcDbBlockTableRecord
  2
BLOCK_34
  0
BLOCK_RECORD
  5
1CB
330
1
100
AcDbSymbolTableRecord
100
AcDbBlockTableRecord
  2
BLOCK_35
  0
BLOCK_RECORD
  5
1D6
330
1
100
AcDbSymbolTableRecord
100
AcDbBlockTableRecord
  2
BLOCK_36
  0
BLOCK_RECORD
  5
1E1
330
1
100
AcDbSymbolTableRecord
100
AcDbBlockTableRecord
  2
BLOCK_37
  0
BLOCK_RECORD
  5
1EC
330
1
100
AcDbSymbolTableRecord
100
AcDbBlockTableRecord
  2
BLOCK_38
  0
BLOCK_RECORD
  5
1F7
330
1
100
AcDbSymbolTableRecord
100
AcDbBlockTableRecord
  2
BLOCK_39
  0
BLOCK_RECORD
  5
202
330
1
100
AcDbSymbolTableRecord
100
AcDbBlockTableRecord
  2
BLOCK_40
  0
BLOCK_RECORD
  5
20D
330
1
100
AcDbSymbolTableRecord
100
AcDbBlockTableRecord
  2
BLOCK_41
  0
BLOCK_RECORD
  5
218
330
1
100
AcDbSymbolTableRecord
100
AcDbBlockTableRecord
  2
BLOCK_42
  0
BLOCK_RECORD
  5
223
330
1
100
AcDbSymbolTableRecord
100
AcDbBlockTableRecord
  2
BLOCK_43
  0
BLOCK_RECORD
  5
22E
330
1
100
AcDbSymbolTableRecord
100
AcDbBlockTableRecord
  2
BLOCK_44
  0
BLOCK_RECORD
  5
239
330
1
100
AcDbSymbolTableRecord
100
AcDbBlockTableRecord
  2
BLOCK_45
  0
BLOCK_RECORD
  5
244
330
1
100
AcDbSymbolTableRecord
100
AcDbBlockTableRecord
  2
BLOCK_46
  0
BLOCK_RECORD
  5
24F
330
1
100
AcDbSymbolTableRecord
100
AcDbBlockTableRecord
  2
BLOCK_47
  0
BLOCK_RECORD
  5
25A
330
1
100
AcDbSymbolTableRecord
100
AcDbBlockTableRecord
  2
BLOCK_48
  0
BLOCK_RECORD
  5
265
330
1
100
AcDbSymbolTableRecord
100
AcDbBlockTableRecord
  2
BLOCK_49
  0
BLOCK_RECORD
  5
270
330
1
100
AcDbSymbolTableRecord
100
AcDbBlockTableRecord
  2
BLOCK_50
  0
BLOCK_RECORD
  5
27B
330
1
100
AcDbSymbolTableRecord
100
AcDbBlockTableRecord
  2
BLOCK_51
  0
BLOCK_RECORD
  5
286
330
1
100
AcDbSymbolTableRecord
100
AcDbBlockTableRecord
  2
BLOCK_52
  0
BLOCK_RECORD
  5
291
330
1
100
AcDbSymbolTableRecord
100
AcDbBlockTableRecord
  2
BLOCK_53
  0
BLOCK_RECORD
  5
29C
330
1
100
AcDbSymbolTableRecord
100
AcDbBlockTableRecord
  2
BLOCK_54
  0
BLOCK_RECORD
  5
2A7
330
1
100
AcDbSymbolTableRecord
100
AcDbBlockTableRecord
  2
BLOCK_55
  0
BLOCK_RECORD
  5
2B2
330
1
100
AcDbSymbolTableRecord
100
AcDbBlockTableRecord
  2
BLOCK_56
  0
BLOCK_RECORD
  5
2BD
330
1
100
AcDbSymbolTableRecord
100
AcDbBlockTableRecord
  2
BLOCK_57
  0
BLOCK_RECORD
  5
2C8
330
1
100
AcDbSymbolTableRecord
100
AcDbBlockTableRecord
  2
BLOCK_58
  0
BLOCK_RECORD
  5
2D3
330
1
100
AcDbSymbolTableRecord
100
AcDbBlockTableRecord
  2
BLOCK_59
  0
BLOCK_RECORD
  5
2DE
330
1
100
AcDbSymbolTableRecord
100
AcDbBlockTableRecord
  2
BLOCK_60
  0
BLOCK_RECORD
  5
2E9
330
1
100
AcDbSymbolTableRecord
100
AcDbBlockTableRecord
  2
BLOCK_61
  0
BLOCK_RECORD
  5
2F4
330
1
100
AcDbSymbolTableRecord
100
AcDbBlockTableRecord
  2
BLOCK_62
  0
BLOCK_RECORD
  5
31F
330
1
100
AcDbSymbolTableRecord
100
AcDbBlockTableRecord
  2
BLOCK_63
  0
BLOCK_RECORD
  5
32A
330
1
100
AcDbSymbolTableRecord
100
AcDbBlockTableRecord
  2
BLOCK_64
  0
BLOCK_RECORD
  5
335
330
1
100
AcDbSymbolTableRecord
100
AcDbBlockTableRecord
  2
BLOCK_65
  0
BLOCK_RECORD
  5
340
330
1
100
AcDbSymbolTableRecord
100
AcDbBlockTableRecord
  2
BLOCK_66
  0
BLOCK_RECORD
  5
34B
330
1
100
AcDbSymbolTableRecord
100
AcDbBlockTableRecord
  2
BLOCK_67
  0
BLOCK_RECORD
  5
356
330
1
100
AcDbSymbolTableRecord
100
AcDbBlockTableRecord
  2
BLOCK_68
  0
BLOCK_RECORD
  5
361
330
1
100
AcDbSymbolTableRecord
100
AcDbBlockTableRecord
  2
BLOCK_69
  0
BLOCK_RECORD
  5
36C
330
1
100
AcDbSymbolTableRecord
100
AcDbBlockTableRecord
  2
BLOCK_70
  0
BLOCK_RECORD
  5
377
330
1
100
AcDbSymbolTableRecord
100
AcDbBlockTableRecord
  2
BLOCK_71
  0
BLOCK_RECORD
  5
382
330
1
100
AcDbSymbolTableRecord
100
AcDbBlockTableRecord
  2
BLOCK_72
  0
BLOCK_RECORD
  5
38D
330
1
100
AcDbSymbolTableRecord
100
AcDbBlockTableRecord
  2
BLOCK_73
  0
BLOCK_RECORD
  5
398
330
1
100
AcDbSymbolTableRecord
100
AcDbBlockTableRecord
  2
BLOCK_74
  0
BLOCK_RECORD
  5
3A3
330
1
100
AcDbSymbolTableRecord
100
AcDbBlockTableRecord
  2
BLOCK_75
  0
BLOCK_RECORD
  5
3AE
330
1
100
AcDbSymbolTableRecord
100
AcDbBlockTableRecord
  2
BLOCK_76
  0
BLOCK_RECORD
  5
3D9
330
1
100
AcDbSymbolTableRecord
100
AcDbBlockTableRecord
  2
BLOCK_77
  0
BLOCK_RECORD
  5
3E4
330
1
100
AcDbSymbolTableRecord
100
AcDbBlockTableRecord
  2
BLOCK_78
  0
BLOCK_RECORD
  5
3EF
330
1
100
AcDbSymbolTableRecord
100
AcDbBlockTableRecord
  2
BLOCK_79
  0
BLOCK_RECORD
  5
3FA
330
1
100
AcDbSymbolTableRecord
100
AcDbBlockTableRecord
  2
BLOCK_80
  0
BLOCK_RECORD
  5
425
330
1
100
AcDbSymbolTableRecord
100
AcDbBlockTableRecord
  2
BLOCK_81
  0
BLOCK_RECORD
  5
430
330
1
100
AcDbSymbolTableRecord
100
AcDbBlockTableRecord
  2
BLOCK_82
  0
BLOCK_RECORD
  5
43B
330
1
100
AcDbSymbolTableRecord
100
AcDbBlockTableRecord
  2
BLOCK_83
  0
BLOCK_RECORD
  5
446
330
1
100
AcDbSymbolTableRecord
100
AcDbBlockTableRecord
  2
BLOCK_84
  0
BLOCK_RECORD
  5
451
330
1
100
AcDbSymbolTableRecord
100
AcDbBlockTableRecord
  2
BLOCK_85
  0
BLOCK_RECORD
  5
45C
330
1
100
AcDbSymbolTableRecord
100
AcDbBlockTableRecord
  2
BLOCK_86
  0
BLOCK_RECORD
  5
467
330
1
100
AcDbSymbolTableRecord
100
AcDbBlockTableRecord
  2
BLOCK_87
  0
BLOCK_RECORD
  5
46C
330
1
100
AcDbSymbolTableRecord
100
AcDbBlockTableRecord
  2
BLOCK_88
  0
BLOCK_RECORD
  5
471
330
1
100
AcDbSymbolTableRecord
100
AcDbBlockTableRecord
  2
BLOCK_89
  0
BLOCK_RECORD
  5
476
330
1
100
AcDbSymbolTableRecord
100
AcDbBlockTableRecord
  2
BLOCK_90
  0
BLOCK_RECORD
  5
47B
330
1
100
AcDbSymbolTableRecord
100
AcDbBlockTableRecord
  2
BLOCK_91
  0
BLOCK_RECORD
  5
480
330
1
100
AcDbSymbolTableRecord
100
AcDbBlockTableRecord
  2
BLOCK_92
  0
BLOCK_RECORD
  5
485
330
1
100
AcDbSymbolTableRecord
100
AcDbBlockTableRecord
  2
BLOCK_93
  0
BLOCK_RECORD
  5
48A
330
1
100
AcDbSymbolTableRecord
100
AcDbBlockTableRecord
  2
BLOCK_94
  0
BLOCK_RECORD
  5
48F
330
1
100
AcDbSymbolTableRecord
100
AcDbBlockTableRecord
  2
BLOCK_95
  0
BLOCK_RECORD
  5
494
330
1
100
AcDbSymbolTableRecord
100
AcDbBlockTableRecord
  2
BLOCK_96
  0
BLOCK_RECORD
  5
499
330
1
100
AcDbSymbolTableRecord
100
AcDbBlockTableRecord
  2
BLOCK_97
  0
BLOCK_RECORD
  5
49E
330
1
100
AcDbSymbolTableRecord
100
AcDbBlockTableRecord
  2
BLOCK_98
  0
BLOCK_RECORD
  5
4A3
330
1
100
AcDbSymbolTableRecord
100
AcDbBlockTableRecord
  2
BLOCK_99
  0
BLOCK_RECORD
  5
4A8
330
1
100
AcDbSymbolTableRecord
100
AcDbBlockTableRecord
  2
BLOCK_100
  0
BLOCK_RECORD
  5
4AD
330
1
100
AcDbSymbolTableRecord
100
AcDbBlockTableRecord
  2
BLOCK_101
  0
BLOCK_RECORD
  5
4B2
330
1
100
AcDbSymbolTableRecord
100
AcDbBlockTableRecord
  2
BLOCK_102
  0
BLOCK_RECORD
  5
4B7
330
1
100
AcDbSymbolTableRecord
100
AcDbBlockTableRecord
  2
BLOCK_103
  0
BLOCK_RECORD
  5
4BC
330
1
100
AcDbSymbolTableRecord
100
AcDbBlockTableRecord
  2
BLOCK_104
  0
BLOCK_RECORD
  5
4C1
330
1
100
AcDbSymbolTableRecord
100
AcDbBlockTableRecord
  2
BLOCK_105
  0
BLOCK_RECORD
  5
4C6
330
1
100
AcDbSymbolTableRecord
100
AcDbBlockTableRecord
  2
BLOCK_106
  0
BLOCK_RECORD
  5
4CB
330
1
100
AcDbSymbolTableRecord
100
AcDbBlockTableRecord
  2
BLOCK_107
  0
BLOCK_RECORD
  5
4D0
330
1
100
AcDbSymbolTableRecord
100
AcDbBlockTableRecord
  2
BLOCK_108
  0
BLOCK_RECORD
  5
4D5
330
1
100
AcDbSymbolTableRecord
100
AcDbBlockTableRecord
  2
BLOCK_109
  0
BLOCK_RECORD
  5
4DA
330
1
100
AcDbSymbolTableRecord
100
AcDbBlockTableRecord
  2
BLOCK_110
  0
BLOCK_RECORD
  5
4DF
330
1
100
AcDbSymbolTableRecord
100
AcDbBlockTableRecord
  2
BLOCK_111
  0
BLOCK_RECORD
  5
4E4
330
1
100
AcDbSymbolTableRecord
100
AcDbBlockTableRecord
  2
BLOCK_112
  0
BLOCK_RECORD
  5
4E9
330
1
100
AcDbSymbolTableRecord
100
AcDbBlockTableRecord
  2
BLOCK_113
  0
BLOCK_RECORD
  5
4EE
330
1
100
AcDbSymbolTableRecord
100
AcDbBlockTableRecord
  2
BLOCK_114
  0
BLOCK_RECORD
  5
4F3
330
1
100
AcDbSymbolTableRecord
100
AcDbBlockTableRecord
  2
BLOCK_115
  0
BLOCK_RECORD
  5
4F8
330
1
100
AcDbSymbolTableRecord
100
AcDbBlockTableRecord
  2
BLOCK_116
  0
BLOCK_RECORD
  5
4FD
330
1
100
AcDbSymbolTableRecord
100
AcDbBlockTableRecord
  2
BLOCK_117
  0
BLOCK_RECORD
  5
502
330
1
100
AcDbSymbolTableRecord
100
AcDbBlockTableRecord
  2
BLOCK_118
  0
BLOCK_RECORD
  5
507
330
1
100
AcDbSymbolTableRecord
100
AcDbBlockTableRecord
  2
BLOCK_119
  0
BLOCK_RECORD
  5
50C
330
1
100
AcDbSymbolTableRecord
100
AcDbBlockTableRecord
  2
BLOCK_120
  0
BLOCK_RECORD
  5
511
330
1
100
AcDbSymbolTableRecord
100
AcDbBlockTableRecord
  2
BLOCK_121
  0
BLOCK_RECORD
  5
516
330
1
100
AcDbSymbolTableRecord
100
AcDbBlockTableRecord
  2
BLOCK_122
  0
BLOCK_RECORD
  5
51B
330
1
100
AcDbSymbolTableRecord
100
AcDbBlockTableRecord
  2
BLOCK_123
  0
BLOCK_RECORD
  5
520
330
1
100
AcDbSymbolTableRecord
100
AcDbBlockTableRecord
  2
BLOCK_124
  0
BLOCK_RECORD
  5
525
330
1
100
AcDbSymbolTableRecord
100
AcDbBlockTableRecord
  2
BLOCK_125
  0
BLOCK_RECORD
  5
52A
330
1
100
AcDbSymbolTableRecord
100
AcDbBlockTableRecord
  2
BLOCK_126
  0
BLOCK_RECORD
  5
52F
330
1
100
AcDbSymbolTableRecord
100
AcDbBlockTableRecord
  2
BLOCK_127
  0
BLOCK_RECORD
  5
534
330
1
100
AcDbSymbolTableRecord
100
AcDbBlockTableRecord
  2
BLOCK_128
  0
BLOCK_RECORD
  5
539
330
1
100
AcDbSymbolTableRecord
100
AcDbBlockTableRecord
  2
BLOCK_129
  0
BLOCK_RECORD
  5
53E
330
1
100
AcDbSymbolTableRecord
100
AcDbBlockTableRecord
  2
BLOCK_130
  0
BLOCK_RECORD
  5
543
330
1
100
AcDbSymbolTableRecord
100
AcDbBlockTableRecord
  2
BLOCK_131
  0
BLOCK_RECORD
  5
548
330
1
100
AcDbSymbolTableRecord
100
AcDbBlockTableRecord
  2
BLOCK_132
  0
BLOCK_RECORD
  5
54D
330
1
100
AcDbSymbolTableRecord
100
AcDbBlockTableRecord
  2
BLOCK_133
  0
BLOCK_RECORD
  5
552
330
1
100
AcDbSymbolTableRecord
100
AcDbBlockTableRecord
  2
BLOCK_134
  0
BLOCK_RECORD
  5
557
330
1
100
AcDbSymbolTableRecord
100
AcDbBlockTableRecord
  2
BLOCK_135
  0
BLOCK_RECORD
  5
55C
330
1
100
AcDbSymbolTableRecord
100
AcDbBlockTableRecord
  2
BLOCK_136
  0
BLOCK_RECORD
  5
561
330
1
100
AcDbSymbolTableRecord
100
AcDbBlockTableRecord
  2
BLOCK_137
  0
BLOCK_RECORD
  5
566
330
1
100
AcDbSymbolTableRecord
100
AcDbBlockTableRecord
  2
BLOCK_138
  0
BLOCK_RECORD
  5
56B
330
1
100
AcDbSymbolTableRecord
100
AcDbBlockTableRecord
  2
BLOCK_139
  0
BLOCK_RECORD
  5
570
330
1
100
AcDbSymbolTableRecord
100
AcDbBlockTableRecord
  2
BLOCK_140
  0
BLOCK_RECORD
  5
575
330
1
100
AcDbSymbolTableRecord
100
AcDbBlockTableRecord
  2
BLOCK_141
  0
BLOCK_RECORD
  5
57A
330
1
100
AcDbSymbolTableRecord
100
AcDbBlockTableRecord
  2
BLOCK_142
  0
BLOCK_RECORD
  5
57F
330
1
100
AcDbSymbolTableRecord
100
AcDbBlockTableRecord
  2
BLOCK_143
  0
BLOCK_RECORD
  5
584
330
1
100
AcDbSymbolTableRecord
100
AcDbBlockTableRecord
  2
BLOCK_144
  0
BLOCK_RECORD
  5
589
330
1
100
AcDbSymbolTableRecord
100
AcDbBlockTableRecord
  2
BLOCK_145
  0
BLOCK_RECORD
  5
58E
330
1
100
AcDbSymbolTableRecord
100
AcDbBlockTableRecord
  2
BLOCK_146
  0
BLOCK_RECORD
  5
593
330
1
100
AcDbSymbolTableRecord
100
AcDbBlockTableRecord
  2
BLOCK_147
  0
BLOCK_RECORD
  5
598
330
1
100
AcDbSymbolTableRecord
100
AcDbBlockTableRecord
  2
BLOCK_148
  0
BLOCK_RECORD
  5
59D
330
1
100
AcDbSymbolTableRecord
100
AcDbBlockTableRecord
  2
BLOCK_149
  0
BLOCK_RECORD
  5
5A2
330
1
100
AcDbSymbolTableRecord
100
AcDbBlockTableRecord
  2
BLOCK_150
  0
BLOCK_RECORD
  5
5A7
330
1
100
AcDbSymbolTableRecord
100
AcDbBlockTableRecord
  2
BLOCK_151
  0
ENDTAB
  0
ENDSEC
  0
SECTION
  2
BLOCKS
  0
BLOCK
  5
20
330
1F
100
AcDbEntity
  8
0
100
AcDbBlockBegin
  2
*MODEL_SPACE
 70
     0
 10
0.0
 20
0.0
 30
0.0
  3
*MODEL_SPACE
  1

  0
ENDBLK
  5
21
330
1F
100
AcDbEntity
  8
0
100
AcDbBlockEnd
  0
BLOCK
  5
1C
330
1B
100
AcDbEntity
 67
     1
  8
0
100
AcDbBlockBegin
  2
*PAPER_SPACE
 70
     0
 10
0.0
 20
0.0
 30
0.0
  3
*PAPER_SPACE
  1

  0
ENDBLK
  5
1D
330
1B
100
AcDbEntity
 67
     1
  8
0
100
AcDbBlockEnd
  0
BLOCK
  5
42
330
40
100
AcDbEntity
  8
0
100
AcDbBlockBegin
  2
BLOCK_2
 70
     0
 10
0.0
 20
0.0
 30
0.0
  3
BLOCK_2
  1

  0
POLYLINE
  5
44
330
40
100
AcDbEntity
  8
0
 62
     7
100
AcDb2dPolyline
 66
     1
 10
0.0
 20
0.0
 30
0.0
  0
VERTEX
  5
45
330
44
100
AcDbEntity
  8
0
 62
     7
100
AcDbVertex
100
AcDb2dVertex
 10
-17.75718235965939
 20
157.0248884073144
 30
0.0
  0
VERTEX
  5
46
330
44
100
AcDbEntity
  8
0
 62
     7
100
AcDbVertex
100
AcDb2dVertex
 10
-17.75718235965939
 20
153.8498884073148
 30
0.0
  0
VERTEX
  5
47
330
44
100
AcDbEntity
  8
0
 62
     7
100
AcDbVertex
100
AcDb2dVertex
 10
-23.72618235965943
 20
153.8498884073148
 30
0.0
  0
VERTEX
  5
48
330
44
100
AcDbEntity
  8
0
 62
     7
100
AcDbVertex
100
AcDb2dVertex
 10
-23.72618235965943
 20
157.0248884073144
 30
0.0
  0
VERTEX
  5
49
330
44
100
AcDbEntity
  8
0
 62
     7
100
AcDbVertex
100
AcDb2dVertex
 10
-17.75718235965939
 20
157.0248884073144
 30
0.0
  0
SEQEND
  5
4A
330
44
100
AcDbEntity
  8
0
 62
     7
  0
ENDBLK
  5
43
330
40
100
AcDbEntity
  8
0
100
AcDbBlockEnd
  0
BLOCK
  5
4D
330
4B
100
AcDbEntity
  8
0
100
AcDbBlockBegin
  2
BLOCK_3
 70
     0
 10
0.0
 20
0.0
 30
0.0
  3
BLOCK_3
  1

  0
POLYLINE
  5
4F
330
4B
100
AcDbEntity
  8
0
 62
     7
100
AcDb2dPolyline
 66
     1
 10
0.0
 20
0.0
 30
0.0
  0
VERTEX
  5
50
330
4F
100
AcDbEntity
  8
0
 62
     7
100
AcDbVertex
100
AcDb2dVertex
 10
-30.57046635965929
 20
203.1441764073145
 30
0.0
  0
VERTEX
  5
51
330
4F
100
AcDbEntity
  8
0
 62
     7
100
AcDbVertex
100
AcDb2dVertex
 10
-30.57046635965929
 20
189.1429344073145
 30
0.0
  0
VERTEX
  5
52
330
4F
100
AcDbEntity
  8
0
 62
     7
100
AcDbVertex
100
AcDb2dVertex
 10
-44.57120035965943
 20
189.1429344073145
 30
0.0
  0
VERTEX
  5
53
330
4F
100
AcDbEntity
  8
0
 62
     7
100
AcDbVertex
100
AcDb2dVertex
 10
-44.57120035965943
 20
203.1441764073145
 30
0.0
  0
VERTEX
  5
54
330
4F
100
AcDbEntity
  8
0
 62
     7
100
AcDbVertex
100
AcDb2dVertex
 10
-30.57046635965929
 20
203.1441764073145
 30
0.0
  0
SEQEND
  5
55
330
4F
100
AcDbEntity
  8
0
 62
     7
  0
ENDBLK
  5
4E
330
4B
100
AcDbEntity
  8
0
100
AcDbBlockEnd
  0
BLOCK
  5
58
330
56
100
AcDbEntity
  8
0
100
AcDbBlockBegin
  2
BLOCK_4
 70
     0
 10
0.0
 20
0.0
 30
0.0
  3
BLOCK_4
  1

  0
POLYLINE
  5
5A
330
56
100
AcDbEntity
  8
0
 62
     7
100
AcDb2dPolyline
 66
     1
 10
0.0
 20
0.0
 30
0.0
  0
VERTEX
  5
5B
330
5A
100
AcDbEntity
  8
0
 62
     7
100
AcDbVertex
100
AcDb2dVertex
 10
-11.52021235965948
 20
203.1441764073145
 30
0.0
  0
VERTEX
  5
5C
330
5A
100
AcDbEntity
  8
0
 62
     7
100
AcDbVertex
100
AcDb2dVertex
 10
-11.52021235965948
 20
189.1429344073145
 30
0.0
  0
VERTEX
  5
5D
330
5A
100
AcDbEntity
  8
0
 62
     7
100
AcDbVertex
100
AcDb2dVertex
 10
-25.52120035965924
 20
189.1429344073145
 30
0.0
  0
VERTEX
  5
5E
330
5A
100
AcDbEntity
  8
0
 62
     7
100
AcDbVertex
100
AcDb2dVertex
 10
-25.52120035965924
 20
203.1441764073145
 30
0.0
  0
VERTEX
  5
5F
330
5A
100
AcDbEntity
  8
0
 62
     7
100
AcDbVertex
100
AcDb2dVertex
 10
-11.52021235965948
 20
203.1441764073145
 30
0.0
  0
SEQEND
  5
60
330
5A
100
AcDbEntity
  8
0
 62
     7
  0
ENDBLK
  5
59
330
56
100
AcDbEntity
  8
0
100
AcDbBlockEnd
  0
BLOCK
  5
63
330
61
100
AcDbEntity
  8
0
100
AcDbBlockBegin
  2
BLOCK_5
 70
     0
 10
0.0
 20
0.0
 30
0.0
  3
BLOCK_5
  1

  0
POLYLINE
  5
65
330
61
100
AcDbEntity
  8
0
 62
     7
100
AcDb2dPolyline
 66
     1
 10
0.0
 20
0.0
 30
0.0
  0
VERTEX
  5
66
330
65
100
AcDbEntity
  8
0
 62
     7
100
AcDbVertex
100
AcDb2dVertex
 10
7.529533640340452
 20
203.1441764073145
 30
0.0
  0
VERTEX
  5
67
330
65
100
AcDbEntity
  8
0
 62
     7
100
AcDbVertex
100
AcDb2dVertex
 10
7.529533640340452
 20
189.1429344073145
 30
0.0
  0
VERTEX
  5
68
330
65
100
AcDbEntity
  8
0
 62
     7
100
AcDbVertex
100
AcDb2dVertex
 10
-6.471454359659306
 20
189.1429344073145
 30
0.0
  0
VERTEX
  5
69
330
65
100
AcDbEntity
  8
0
 62
     7
100
AcDbVertex
100
AcDb2dVertex
 10
-6.471454359659306
 20
203.1441764073145
 30
0.0
  0
VERTEX
  5
6A
330
65
100
AcDbEntity
  8
0
 62
     7
100
AcDbVertex
100
AcDb2dVertex
 10
7.529533640340452
 20
203.1441764073145
 30
0.0
  0
SEQEND
  5
6B
330
65
100
AcDbEntity
  8
0
 62
     7
  0
ENDBLK
  5
64
330
61
100
AcDbEntity
  8
0
100
AcDbBlockEnd
  0
BLOCK
  5
6E
330
6C
100
AcDbEntity
  8
0
100
AcDbBlockBegin
  2
BLOCK_6
 70
     0
 10
0.0
 20
0.0
 30
0.0
  3
BLOCK_6
  1

  0
POLYLINE
  5
70
330
6C
100
AcDbEntity
  8
0
 62
     7
100
AcDb2dPolyline
 66
     1
 10
0.0
 20
0.0
 30
0.0
  0
VERTEX
  5
71
330
70
100
AcDbEntity
  8
0
 62
     7
100
AcDbVertex
100
AcDb2dVertex
 10
26.57953364034064
 20
203.1441764073145
 30
0.0
  0
VERTEX
  5
72
330
70
100
AcDbEntity
  8
0
 62
     7
100
AcDbVertex
100
AcDb2dVertex
 10
26.57953364034064
 20
189.1429344073145
 30
0.0
  0
VERTEX
  5
73
330
70
100
AcDbEntity
  8
0
 62
     7
100
AcDbVertex
100
AcDb2dVertex
 10
12.57854564034056
 20
189.1429344073145
 30
0.0
  0
VERTEX
  5
74
330
70
100
AcDbEntity
  8
0
 62
     7
100
AcDbVertex
100
AcDb2dVertex
 10
12.57854564034056
 20
203.1441764073145
 30
0.0
  0
VERTEX
  5
75
330
70
100
AcDbEntity
  8
0
 62
     7
100
AcDbVertex
100
AcDb2dVertex
 10
26.57953364034064
 20
203.1441764073145
 30
0.0
  0
SEQEND
  5
76
330
70
100
AcDbEntity
  8
0
 62
     7
  0
ENDBLK
  5
6F
330
6C
100
AcDbEntity
  8
0
100
AcDbBlockEnd
  0
BLOCK
  5
79
330
77
100
AcDbEntity
  8
0
100
AcDbBlockBegin
  2
BLOCK_7
 70
     0
 10
0.0
 20
0.0
 30
0.0
  3
BLOCK_7
  1

  0
POLYLINE
  5
7B
330
77
100
AcDbEntity
  8
0
 62
     7
100
AcDb2dPolyline
 66
     1
 10
0.0
 20
0.0
 30
0.0
  0
VERTEX
  5
7C
330
7B
100
AcDbEntity
  8
0
 62
     7
100
AcDbVertex
100
AcDb2dVertex
 10
45.62953364034051
 20
203.1441764073145
 30
0.0
  0
VERTEX
  5
7D
330
7B
100
AcDbEntity
  8
0
 62
     7
100
AcDbVertex
100
AcDb2dVertex
 10
45.62953364034051
 20
189.1429344073145
 30
0.0
  0
VERTEX
  5
7E
330
7B
100
AcDbEntity
  8
0
 62
     7
100
AcDbVertex
100
AcDb2dVertex
 10
31.62854564034075
 20
189.1429344073145
 30
0.0
  0
VERTEX
  5
7F
330
7B
100
AcDbEntity
  8
0
 62
     7
100
AcDbVertex
100
AcDb2dVertex
 10
31.62854564034075
 20
203.1441764073145
 30
0.0
  0
VERTEX
  5
80
330
7B
100
AcDbEntity
  8
0
 62
     7
100
AcDbVertex
100
AcDb2dVertex
 10
45.62953364034051
 20
203.1441764073145
 30
0.0
  0
SEQEND
  5
81
330
7B
100
AcDbEntity
  8
0
 62
     7
  0
ENDBLK
  5
7A
330
77
100
AcDbEntity
  8
0
100
AcDbBlockEnd
  0
BLOCK
  5
84
330
82
100
AcDbEntity
  8
0
100
AcDbBlockBegin
  2
BLOCK_8
 70
     0
 10
0.0
 20
0.0
 30
0.0
  3
BLOCK_8
  1

  0
POLYLINE
  5
86
330
82
100
AcDbEntity
  8
0
 62
     7
100
AcDb2dPolyline
 66
     1
 10
0.0
 20
0.0
 30
0.0
  0
VERTEX
  5
87
330
86
100
AcDbEntity
  8
0
 62
     7
100
AcDbVertex
100
AcDb2dVertex
 10
64.67775564034051
 20
203.1441764073145
 30
0.0
  0
VERTEX
  5
88
330
86
100
AcDbEntity
  8
0
 62
     7
100
AcDbVertex
100
AcDb2dVertex
 10
64.67775564034051
 20
189.1429344073145
 30
0.0
  0
VERTEX
  5
89
330
86
100
AcDbEntity
  8
0
 62
     7
100
AcDbVertex
100
AcDb2dVertex
 10
50.67702164034068
 20
189.1429344073145
 30
0.0
  0
VERTEX
  5
8A
330
86
100
AcDbEntity
  8
0
 62
     7
100
AcDbVertex
100
AcDb2dVertex
 10
50.67702164034068
 20
203.1441764073145
 30
0.0
  0
VERTEX
  5
8B
330
86
100
AcDbEntity
  8
0
 62
     7
100
AcDbVertex
100
AcDb2dVertex
 10
64.67775564034051
 20
203.1441764073145
 30
0.0
  0
SEQEND
  5
8C
330
86
100
AcDbEntity
  8
0
 62
     7
  0
ENDBLK
  5
85
330
82
100
AcDbEntity
  8
0
100
AcDbBlockEnd
  0
BLOCK
  5
8F
330
8D
100
AcDbEntity
  8
0
100
AcDbBlockBegin
  2
BLOCK_9
 70
     0
 10
0.0
 20
0.0
 30
0.0
  3
BLOCK_9
  1

  0
POLYLINE
  5
91
330
8D
100
AcDbEntity
  8
0
 62
     7
100
AcDb2dPolyline
 66
     1
 10
0.0
 20
0.0
 30
0.0
  0
VERTEX
  5
92
330
91
100
AcDbEntity
  8
0
 62
     7
100
AcDbVertex
100
AcDb2dVertex
 10
83.72978764034052
 20
203.1441764073145
 30
0.0
  0
VERTEX
  5
93
330
91
100
AcDbEntity
  8
0
 62
     7
100
AcDbVertex
100
AcDb2dVertex
 10
83.72978764034052
 20
189.1429344073145
 30
0.0
  0
VERTEX
  5
94
330
91
100
AcDbEntity
  8
0
 62
     7
100
AcDbVertex
100
AcDb2dVertex
 10
69.72676764034061
 20
189.1429344073145
 30
0.0
  0
VERTEX
  5
95
330
91
100
AcDbEntity
  8
0
 62
     7
100
AcDbVertex
100
AcDb2dVertex
 10
69.72676764034061
 20
203.1441764073145
 30
0.0
  0
VERTEX
  5
96
330
91
100
AcDbEntity
  8
0
 62
     7
100
AcDbVertex
100
AcDb2dVertex
 10
83.72978764034052
 20
203.1441764073145
 30
0.0
  0
SEQEND
  5
97
330
91
100
AcDbEntity
  8
0
 62
     7
  0
ENDBLK
  5
90
330
8D
100
AcDbEntity
  8
0
100
AcDbBlockEnd
  0
BLOCK
  5
9A
330
98
100
AcDbEntity
  8
0
100
AcDbBlockBegin
  2
BLOCK_10
 70
     0
 10
0.0
 20
0.0
 30
0.0
  3
BLOCK_10
  1

  0
POLYLINE
  5
9C
330
98
100
AcDbEntity
  8
0
 62
     7
100
AcDb2dPolyline
 66
     1
 10
0.0
 20
0.0
 30
0.0
  0
VERTEX
  5
9D
330
9C
100
AcDbEntity
  8
0
 62
     7
100
AcDbVertex
100
AcDb2dVertex
 10
102.7797876403407
 20
203.1441764073145
 30
0.0
  0
VERTEX
  5
9E
330
9C
100
AcDbEntity
  8
0
 62
     7
100
AcDbVertex
100
AcDb2dVertex
 10
102.7797876403407
 20
189.1429344073145
 30
0.0
  0
VERTEX
  5
9F
330
9C
100
AcDbEntity
  8
0
 62
     7
100
AcDbVertex
100
AcDb2dVertex
 10
88.77879964034062
 20
189.1429344073145
 30
0.0
  0
VERTEX
  5
A0
330
9C
100
AcDbEntity
  8
0
 62
     7
100
AcDbVertex
100
AcDb2dVertex
 10
88.77879964034062
 20
203.1441764073145
 30
0.0
  0
VERTEX
  5
A1
330
9C
100
AcDbEntity
  8
0
 62
     7
100
AcDbVertex
100
AcDb2dVertex
 10
102.7797876403407
 20
203.1441764073145
 30
0.0
  0
SEQEND
  5
A2
330
9C
100
AcDbEntity
  8
0
 62
     7
  0
ENDBLK
  5
9B
330
98
100
AcDbEntity
  8
0
100
AcDbBlockEnd
  0
BLOCK
  5
A5
330
A3
100
AcDbEntity
  8
0
100
AcDbBlockBegin
  2
BLOCK_11
 70
     0
 10
0.0
 20
0.0
 30
0.0
  3
BLOCK_11
  1

  0
POLYLINE
  5
A7
330
A3
100
AcDbEntity
  8
0
 62
     7
100
AcDb2dPolyline
 66
     1
 10
0.0
 20
0.0
 30
0.0
  0
VERTEX
  5
A8
330
A7
100
AcDbEntity
  8
0
 62
     7
100
AcDbVertex
100
AcDb2dVertex
 10
121.8297876403409
 20
203.1441764073145
 30
0.0
  0
VERTEX
  5
A9
330
A7
100
AcDbEntity
  8
0
 62
     7
100
AcDbVertex
100
AcDb2dVertex
 10
121.8297876403409
 20
189.1429344073145
 30
0.0
  0
VERTEX
  5
AA
330
A7
100
AcDbEntity
  8
0
 62
     7
100
AcDbVertex
100
AcDb2dVertex
 10
107.8287996403405
 20
189.1429344073145
 30
0.0
  0
VERTEX
  5
AB
330
A7
100
AcDbEntity
  8
0
 62
     7
100
AcDbVertex
100
AcDb2dVertex
 10
107.8287996403405
 20
203.1441764073145
 30
0.0
  0
VERTEX
  5
AC
330
A7
100
AcDbEntity
  8
0
 62
     7
100
AcDbVertex
100
AcDb2dVertex
 10
121.8297876403409
 20
203.1441764073145
 30
0.0
  0
SEQEND
  5
AD
330
A7
100
AcDbEntity
  8
0
 62
     7
  0
ENDBLK
  5
A6
330
A3
100
AcDbEntity
  8
0
100
AcDbBlockEnd
  0
BLOCK
  5
B0
330
AE
100
AcDbEntity
  8
0
100
AcDbBlockBegin
  2
BLOCK_12
 70
     0
 10
0.0
 20
0.0
 30
0.0
  3
BLOCK_12
  1

  0
POLYLINE
  5
B2
330
AE
100
AcDbEntity
  8
0
 62
     7
100
AcDb2dPolyline
 66
     1
 10
0.0
 20
0.0
 30
0.0
  0
VERTEX
  5
B3
330
B2
100
AcDbEntity
  8
0
 62
     7
100
AcDbVertex
100
AcDb2dVertex
 10
140.8797876403405
 20
203.1441764073145
 30
0.0
  0
VERTEX
  5
B4
330
B2
100
AcDbEntity
  8
0
 62
     7
100
AcDbVertex
100
AcDb2dVertex
 10
140.8797876403405
 20
189.1429344073145
 30
0.0
  0
VERTEX
  5
B5
330
B2
100
AcDbEntity
  8
0
 62
     7
100
AcDbVertex
100
AcDb2dVertex
 10
126.8787996403407
 20
189.1429344073145
 30
0.0
  0
VERTEX
  5
B6
330
B2
100
AcDbEntity
  8
0
 62
     7
100
AcDbVertex
100
AcDb2dVertex
 10
126.8787996403407
 20
203.1441764073145
 30
0.0
  0
VERTEX
  5
B7
330
B2
100
AcDbEntity
  8
0
 62
     7
100
AcDbVertex
100
AcDb2dVertex
 10
140.8797876403405
 20
203.1441764073145
 30
0.0
  0
SEQEND
  5
B8
330
B2
100
AcDbEntity
  8
0
 62
     7
  0
ENDBLK
  5
B1
330
AE
100
AcDbEntity
  8
0
100
AcDbBlockEnd
  0
BLOCK
  5
BB
330
B9
100
AcDbEntity
  8
0
100
AcDbBlockBegin
  2
BLOCK_13
 70
     0
 10
0.0
 20
0.0
 30
0.0
  3
BLOCK_13
  1

  0
POLYLINE
  5
BD
330
B9
100
AcDbEntity
  8
0
 62
     7
100
AcDb2dPolyline
 66
     1
 10
0.0
 20
0.0
 30
0.0
  0
VERTEX
  5
BE
330
BD
100
AcDbEntity
  8
0
 62
     7
100
AcDbVertex
100
AcDb2dVertex
 10
159.9295336403407
 20
203.1441764073145
 30
0.0
  0
VERTEX
  5
BF
330
BD
100
AcDbEntity
  8
0
 62
     7
100
AcDbVertex
100
AcDb2dVertex
 10
159.9295336403407
 20
189.1429344073145
 30
0.0
  0
VERTEX
  5
C0
330
BD
100
AcDbEntity
  8
0
 62
     7
100
AcDbVertex
100
AcDb2dVertex
 10
145.9285456403409
 20
189.1429344073145
 30
0.0
  0
VERTEX
  5
C1
330
BD
100
AcDbEntity
  8
0
 62
     7
100
AcDbVertex
100
AcDb2dVertex
 10
145.9285456403409
 20
203.1441764073145
 30
0.0
  0
VERTEX
  5
C2
330
BD
100
AcDbEntity
  8
0
 62
     7
100
AcDbVertex
100
AcDb2dVertex
 10
159.9295336403407
 20
203.1441764073145
 30
0.0
  0
SEQEND
  5
C3
330
BD
100
AcDbEntity
  8
0
 62
     7
  0
ENDBLK
  5
BC
330
B9
100
AcDbEntity
  8
0
100
AcDbBlockEnd
  0
BLOCK
  5
C6
330
C4
100
AcDbEntity
  8
0
100
AcDbBlockBegin
  2
BLOCK_14
 70
     0
 10
0.0
 20
0.0
 30
0.0
  3
BLOCK_14
  1

  0
POLYLINE
  5
C8
330
C4
100
AcDbEntity
  8
0
 62
     7
100
AcDb2dPolyline
 66
     1
 10
0.0
 20
0.0
 30
0.0
  0
VERTEX
  5
C9
330
C8
100
AcDbEntity
  8
0
 62
     7
100
AcDbVertex
100
AcDb2dVertex
 10
178.9795336403409
 20
203.1441764073145
 30
0.0
  0
VERTEX
  5
CA
330
C8
100
AcDbEntity
  8
0
 62
     7
100
AcDbVertex
100
AcDb2dVertex
 10
178.9795336403409
 20
189.1429344073145
 30
0.0
  0
VERTEX
  5
CB
330
C8
100
AcDbEntity
  8
0
 62
     7
100
AcDbVertex
100
AcDb2dVertex
 10
164.9785456403405
 20
189.1429344073145
 30
0.0
  0
VERTEX
  5
CC
330
C8
100
AcDbEntity
  8
0
 62
     7
100
AcDbVertex
100
AcDb2dVertex
 10
164.9785456403405
 20
203.1441764073145
 30
0.0
  0
VERTEX
  5
CD
330
C8
100
AcDbEntity
  8
0
 62
     7
100
AcDbVertex
100
AcDb2dVertex
 10
178.9795336403409
 20
203.1441764073145
 30
0.0
  0
SEQEND
  5
CE
330
C8
100
AcDbEntity
  8
0
 62
     7
  0
ENDBLK
  5
C7
330
C4
100
AcDbEntity
  8
0
100
AcDbBlockEnd
  0
BLOCK
  5
D1
330
CF
100
AcDbEntity
  8
0
100
AcDbBlockBegin
  2
BLOCK_15
 70
     0
 10
0.0
 20
0.0
 30
0.0
  3
BLOCK_15
  1

  0
POLYLINE
  5
D3
330
CF
100
AcDbEntity
  8
0
 62
     7
100
AcDb2dPolyline
 66
     1
 10
0.0
 20
0.0
 30
0.0
  0
VERTEX
  5
D4
330
D3
100
AcDbEntity
  8
0
 62
     7
100
AcDbVertex
100
AcDb2dVertex
 10
198.0295336403404
 20
203.1441764073145
 30
0.0
  0
VERTEX
  5
D5
330
D3
100
AcDbEntity
  8
0
 62
     7
100
AcDbVertex
100
AcDb2dVertex
 10
198.0295336403404
 20
189.1429344073145
 30
0.0
  0
VERTEX
  5
D6
330
D3
100
AcDbEntity
  8
0
 62
     7
100
AcDbVertex
100
AcDb2dVertex
 10
184.0285456403407
 20
189.1429344073145
 30
0.0
  0
VERTEX
  5
D7
330
D3
100
AcDbEntity
  8
0
 62
     7
100
AcDbVertex
100
AcDb2dVertex
 10
184.0285456403407
 20
203.1441764073145
 30
0.0
  0
VERTEX
  5
D8
330
D3
100
AcDbEntity
  8
0
 62
     7
100
AcDbVertex
100
AcDb2dVertex
 10
198.0295336403404
 20
203.1441764073145
 30
0.0
  0
SEQEND
  5
D9
330
D3
100
AcDbEntity
  8
0
 62
     7
  0
ENDBLK
  5
D2
330
CF
100
AcDbEntity
  8
0
100
AcDbBlockEnd
  0
BLOCK
  5
DC
330
DA
100
AcDbEntity
  8
0
100
AcDbBlockBegin
  2
BLOCK_16
 70
     0
 10
0.0
 20
0.0
 30
0.0
  3
BLOCK_16
  1

  0
POLYLINE
  5
DE
330
DA
100
AcDbEntity
  8
0
 62
     7
100
AcDb2dPolyline
 66
     1
 10
0.0
 20
0.0
 30
0.0
  0
VERTEX
  5
DF
330
DE
100
AcDbEntity
  8
0
 62
     7
100
AcDbVertex
100
AcDb2dVertex
 10
217.0795336403406
 20
203.1441764073145
 30
0.0
  0
VERTEX
  5
E0
330
DE
100
AcDbEntity
  8
0
 62
     7
100
AcDbVertex
100
AcDb2dVertex
 10
217.0795336403406
 20
189.1429344073145
 30
0.0
  0
VERTEX
  5
E1
330
DE
100
AcDbEntity
  8
0
 62
     7
100
AcDbVertex
100
AcDb2dVertex
 10
203.0785456403409
 20
189.1429344073145
 30
0.0
  0
VERTEX
  5
E2
330
DE
100
AcDbEntity
  8
0
 62
     7
100
AcDbVertex
100
AcDb2dVertex
 10
203.0785456403409
 20
203.1441764073145
 30
0.0
  0
VERTEX
  5
E3
330
DE
100
AcDbEntity
  8
0
 62
     7
100
AcDbVertex
100
AcDb2dVertex
 10
217.0795336403406
 20
203.1441764073145
 30
0.0
  0
SEQEND
  5
E4
330
DE
100
AcDbEntity
  8
0
 62
     7
  0
ENDBLK
  5
DD
330
DA
100
AcDbEntity
  8
0
100
AcDbBlockEnd
  0
BLOCK
  5
E7
330
E5
100
AcDbEntity
  8
0
100
AcDbBlockBegin
  2
BLOCK_17
 70
     0
 10
0.0
 20
0.0
 30
0.0
  3
BLOCK_17
  1

  0
POLYLINE
  5
E9
330
E5
100
AcDbEntity
  8
0
 62
     7
100
AcDb2dPolyline
 66
     1
 10
0.0
 20
0.0
 30
0.0
  0
VERTEX
  5
EA
330
E9
100
AcDbEntity
  8
0
 62
     7
100
AcDbVertex
100
AcDb2dVertex
 10
236.1295336403408
 20
203.1441764073145
 30
0.0
  0
VERTEX
  5
EB
330
E9
100
AcDbEntity
  8
0
 62
     7
100
AcDbVertex
100
AcDb2dVertex
 10
236.1295336403408
 20
189.1429344073145
 30
0.0
  0
VERTEX
  5
EC
330
E9
100
AcDbEntity
  8
0
 62
     7
100
AcDbVertex
100
AcDb2dVertex
 10
222.1285456403404
 20
189.1429344073145
 30
0.0
  0
VERTEX
  5
ED
330
E9
100
AcDbEntity
  8
0
 62
     7
100
AcDbVertex
100
AcDb2dVertex
 10
222.1285456403404
 20
203.1441764073145
 30
0.0
  0
VERTEX
  5
EE
330
E9
100
AcDbEntity
  8
0
 62
     7
100
AcDbVertex
100
AcDb2dVertex
 10
236.1295336403408
 20
203.1441764073145
 30
0.0
  0
SEQEND
  5
EF
330
E9
100
AcDbEntity
  8
0
 62
     7
  0
ENDBLK
  5
E8
330
E5
100
AcDbEntity
  8
0
100
AcDbBlockEnd
  0
BLOCK
  5
F2
330
F0
100
AcDbEntity
  8
0
100
AcDbBlockBegin
  2
BLOCK_18
 70
     0
 10
0.0
 20
0.0
 30
0.0
  3
BLOCK_18
  1

  0
POLYLINE
  5
F4
330
F0
100
AcDbEntity
  8
0
 62
     7
100
AcDb2dPolyline
 66
     1
 10
0.0
 20
0.0
 30
0.0
  0
VERTEX
  5
F5
330
F4
100
AcDbEntity
  8
0
 62
     7
100
AcDbVertex
100
AcDb2dVertex
 10
255.1795336403404
 20
203.1441764073145
 30
0.0
  0
VERTEX
  5
F6
330
F4
100
AcDbEntity
  8
0
 62
     7
100
AcDbVertex
100
AcDb2dVertex
 10
255.1795336403404
 20
189.1429344073145
 30
0.0
  0
VERTEX
  5
F7
330
F4
100
AcDbEntity
  8
0
 62
     7
100
AcDbVertex
100
AcDb2dVertex
 10
241.1785456403406
 20
189.1429344073145
 30
0.0
  0
VERTEX
  5
F8
330
F4
100
AcDbEntity
  8
0
 62
     7
100
AcDbVertex
100
AcDb2dVertex
 10
241.1785456403406
 20
203.1441764073145
 30
0.0
  0
VERTEX
  5
F9
330
F4
100
AcDbEntity
  8
0
 62
     7
100
AcDbVertex
100
AcDb2dVertex
 10
255.1795336403404
 20
203.1441764073145
 30
0.0
  0
SEQEND
  5
FA
330
F4
100
AcDbEntity
  8
0
 62
     7
  0
ENDBLK
  5
F3
330
F0
100
AcDbEntity
  8
0
100
AcDbBlockEnd
  0
BLOCK
  5
FD
330
FB
100
AcDbEntity
  8
0
100
AcDbBlockBegin
  2
BLOCK_19
 70
     0
 10
0.0
 20
0.0
 30
0.0
  3
BLOCK_19
  1

  0
POLYLINE
  5
FF
330
FB
100
AcDbEntity
  8
0
 62
     7
100
AcDb2dPolyline
 66
     1
 10
0.0
 20
0.0
 30
0.0
  0
VERTEX
  5
100
330
FF
100
AcDbEntity
  8
0
 62
     7
100
AcDbVertex
100
AcDb2dVertex
 10
-30.57046635965929
 20
184.0939224073147
 30
0.0
  0
VERTEX
  5
101
330
FF
100
AcDbEntity
  8
0
 62
     7
100
AcDbVertex
100
AcDb2dVertex
 10
-30.57046635965929
 20
170.0929344073146
 30
0.0
  0
VERTEX
  5
102
330
FF
100
AcDbEntity
  8
0
 62
     7
100
AcDbVertex
100
AcDb2dVertex
 10
-44.57120035965943
 20
170.0929344073146
 30
0.0
  0
VERTEX
  5
103
330
FF
100
AcDbEntity
  8
0
 62
     7
100
AcDbVertex
100
AcDb2dVertex
 10
-44.57120035965943
 20
184.0939224073147
 30
0.0
  0
VERTEX
  5
104
330
FF
100
AcDbEntity
  8
0
 62
     7
100
AcDbVertex
100
AcDb2dVertex
 10
-30.57046635965929
 20
184.0939224073147
 30
0.0
  0
SEQEND
  5
105
330
FF
100
AcDbEntity
  8
0
 62
     7
  0
ENDBLK
  5
FE
330
FB
100
AcDbEntity
  8
0
100
AcDbBlockEnd
  0
BLOCK
  5
108
330
106
100
AcDbEntity
  8
0
100
AcDbBlockBegin
  2
BLOCK_20
 70
     0
 10
0.0
 20
0.0
 30
0.0
  3
BLOCK_20
  1

  0
POLYLINE
  5
10A
330
106
100
AcDbEntity
  8
0
 62
     7
100
AcDb2dPolyline
 66
     1
 10
0.0
 20
0.0
 30
0.0
  0
VERTEX
  5
10B
330
10A
100
AcDbEntity
  8
0
 62
     7
100
AcDbVertex
100
AcDb2dVertex
 10
-11.52021235965948
 20
184.0939224073147
 30
0.0
  0
VERTEX
  5
10C
330
10A
100
AcDbEntity
  8
0
 62
     7
100
AcDbVertex
100
AcDb2dVertex
 10
-11.52021235965948
 20
170.0929344073146
 30
0.0
  0
VERTEX
  5
10D
330
10A
100
AcDbEntity
  8
0
 62
     7
100
AcDbVertex
100
AcDb2dVertex
 10
-25.52120035965924
 20
170.0929344073146
 30
0.0
  0
VERTEX
  5
10E
330
10A
100
AcDbEntity
  8
0
 62
     7
100
AcDbVertex
100
AcDb2dVertex
 10
-25.52120035965924
 20
184.0939224073147
 30
0.0
  0
VERTEX
  5
10F
330
10A
100
AcDbEntity
  8
0
 62
     7
100
AcDbVertex
100
AcDb2dVertex
 10
-11.52021235965948
 20
184.0939224073147
 30
0.0
  0
SEQEND
  5
110
330
10A
100
AcDbEntity
  8
0
 62
     7
  0
ENDBLK
  5
109
330
106
100
AcDbEntity
  8
0
100
AcDbBlockEnd
  0
BLOCK
  5
113
330
111
100
AcDbEntity
  8
0
100
AcDbBlockBegin
  2
BLOCK_21
 70
     0
 10
0.0
 20
0.0
 30
0.0
  3
BLOCK_21
  1

  0
POLYLINE
  5
115
330
111
100
AcDbEntity
  8
0
 62
     7
100
AcDb2dPolyline
 66
     1
 10
0.0
 20
0.0
 30
0.0
  0
VERTEX
  5
116
330
115
100
AcDbEntity
  8
0
 62
     7
100
AcDbVertex
100
AcDb2dVertex
 10
7.529533640340452
 20
184.0939224073147
 30
0.0
  0
VERTEX
  5
117
330
115
100
AcDbEntity
  8
0
 62
     7
100
AcDbVertex
100
AcDb2dVertex
 10
7.529533640340452
 20
170.0929344073146
 30
0.0
  0
VERTEX
  5
118
330
115
100
AcDbEntity
  8
0
 62
     7
100
AcDbVertex
100
AcDb2dVertex
 10
-6.471454359659306
 20
170.0929344073146
 30
0.0
  0
VERTEX
  5
119
330
115
100
AcDbEntity
  8
0
 62
     7
100
AcDbVertex
100
AcDb2dVertex
 10
-6.471454359659306
 20
184.0939224073147
 30
0.0
  0
VERTEX
  5
11A
330
115
100
AcDbEntity
  8
0
 62
     7
100
AcDbVertex
100
AcDb2dVertex
 10
7.529533640340452
 20
184.0939224073147
 30
0.0
  0
SEQEND
  5
11B
330
115
100
AcDbEntity
  8
0
 62
     7
  0
ENDBLK
  5
114
330
111
100
AcDbEntity
  8
0
100
AcDbBlockEnd
  0
BLOCK
  5
11E
330
11C
100
AcDbEntity
  8
0
100
AcDbBlockBegin
  2
BLOCK_22
 70
     0
 10
0.0
 20
0.0
 30
0.0
  3
BLOCK_22
  1

  0
POLYLINE
  5
120
330
11C
100
AcDbEntity
  8
0
 62
     7
100
AcDb2dPolyline
 66
     1
 10
0.0
 20
0.0
 30
0.0
  0
VERTEX
  5
121
330
120
100
AcDbEntity
  8
0
 62
     7
100
AcDbVertex
100
AcDb2dVertex
 10
26.57953364034064
 20
184.0939224073147
 30
0.0
  0
VERTEX
  5
122
330
120
100
AcDbEntity
  8
0
 62
     7
100
AcDbVertex
100
AcDb2dVertex
 10
26.57953364034064
 20
170.0929344073146
 30
0.0
  0
VERTEX
  5
123
330
120
100
AcDbEntity
  8
0
 62
     7
100
AcDbVertex
100
AcDb2dVertex
 10
12.57854564034056
 20
170.0929344073146
 30
0.0
  0
VERTEX
  5
124
330
120
100
AcDbEntity
  8
0
 62
     7
100
AcDbVertex
100
AcDb2dVertex
 10
12.57854564034056
 20
184.0939224073147
 30
0.0
  0
VERTEX
  5
125
330
120
100
AcDbEntity
  8
0
 62
     7
100
AcDbVertex
100
AcDb2dVertex
 10
26.57953364034064
 20
184.0939224073147
 30
0.0
  0
SEQEND
  5
126
330
120
100
AcDbEntity
  8
0
 62
     7
  0
ENDBLK
  5
11F
330
11C
100
AcDbEntity
  8
0
100
AcDbBlockEnd
  0
BLOCK
  5
129
330
127
100
AcDbEntity
  8
0
100
AcDbBlockBegin
  2
BLOCK_23
 70
     0
 10
0.0
 20
0.0
 30
0.0
  3
BLOCK_23
  1

  0
POLYLINE
  5
12B
330
127
100
AcDbEntity
  8
0
 62
     7
100
AcDb2dPolyline
 66
     1
 10
0.0
 20
0.0
 30
0.0
  0
VERTEX
  5
12C
330
12B
100
AcDbEntity
  8
0
 62
     7
100
AcDbVertex
100
AcDb2dVertex
 10
45.62953364034051
 20
184.0939224073147
 30
0.0
  0
VERTEX
  5
12D
330
12B
100
AcDbEntity
  8
0
 62
     7
100
AcDbVertex
100
AcDb2dVertex
 10
45.62953364034051
 20
170.0929344073146
 30
0.0
  0
VERTEX
  5
12E
330
12B
100
AcDbEntity
  8
0
 62
     7
100
AcDbVertex
100
AcDb2dVertex
 10
31.62854564034075
 20
170.0929344073146
 30
0.0
  0
VERTEX
  5
12F
330
12B
100
AcDbEntity
  8
0
 62
     7
100
AcDbVertex
100
AcDb2dVertex
 10
31.62854564034075
 20
184.0939224073147
 30
0.0
  0
VERTEX
  5
130
330
12B
100
AcDbEntity
  8
0
 62
     7
100
AcDbVertex
100
AcDb2dVertex
 10
45.62953364034051
 20
184.0939224073147
 30
0.0
  0
SEQEND
  5
131
330
12B
100
AcDbEntity
  8
0
 62
     7
  0
ENDBLK
  5
12A
330
127
100
AcDbEntity
  8
0
100
AcDbBlockEnd
  0
BLOCK
  5
134
330
132
100
AcDbEntity
  8
0
100
AcDbBlockBegin
  2
BLOCK_24
 70
     0
 10
0.0
 20
0.0
 30
0.0
  3
BLOCK_24
  1

  0
POLYLINE
  5
136
330
132
100
AcDbEntity
  8
0
 62
     7
100
AcDb2dPolyline
 66
     1
 10
0.0
 20
0.0
 30
0.0
  0
VERTEX
  5
137
330
136
100
AcDbEntity
  8
0
 62
     7
100
AcDbVertex
100
AcDb2dVertex
 10
64.67775564034051
 20
184.0939224073147
 30
0.0
  0
VERTEX
  5
138
330
136
100
AcDbEntity
  8
0
 62
     7
100
AcDbVertex
100
AcDb2dVertex
 10
64.67775564034051
 20
170.0929344073146
 30
0.0
  0
VERTEX
  5
139
330
136
100
AcDbEntity
  8
0
 62
     7
100
AcDbVertex
100
AcDb2dVertex
 10
50.67702164034068
 20
170.0929344073146
 30
0.0
  0
VERTEX
  5
13A
330
136
100
AcDbEntity
  8
0
 62
     7
100
AcDbVertex
100
AcDb2dVertex
 10
50.67702164034068
 20
184.0939224073147
 30
0.0
  0
VERTEX
  5
13B
330
136
100
AcDbEntity
  8
0
 62
     7
100
AcDbVertex
100
AcDb2dVertex
 10
64.67775564034051
 20
184.0939224073147
 30
0.0
  0
SEQEND
  5
13C
330
136
100
AcDbEntity
  8
0
 62
     7
  0
ENDBLK
  5
135
330
132
100
AcDbEntity
  8
0
100
AcDbBlockEnd
  0
BLOCK
  5
13F
330
13D
100
AcDbEntity
  8
0
100
AcDbBlockBegin
  2
BLOCK_25
 70
     0
 10
0.0
 20
0.0
 30
0.0
  3
BLOCK_25
  1

  0
POLYLINE
  5
141
330
13D
100
AcDbEntity
  8
0
 62
     7
100
AcDb2dPolyline
 66
     1
 10
0.0
 20
0.0
 30
0.0
  0
VERTEX
  5
142
330
141
100
AcDbEntity
  8
0
 62
     7
100
AcDbVertex
100
AcDb2dVertex
 10
83.72978764034052
 20
184.0939224073147
 30
0.0
  0
VERTEX
  5
143
330
141
100
AcDbEntity
  8
0
 62
     7
100
AcDbVertex
100
AcDb2dVertex
 10
83.72978764034052
 20
170.0929344073146
 30
0.0
  0
VERTEX
  5
144
330
141
100
AcDbEntity
  8
0
 62
     7
100
AcDbVertex
100
AcDb2dVertex
 10
69.72676764034061
 20
170.0929344073146
 30
0.0
  0
VERTEX
  5
145
330
141
100
AcDbEntity
  8
0
 62
     7
100
AcDbVertex
100
AcDb2dVertex
 10
69.72676764034061
 20
184.0939224073147
 30
0.0
  0
VERTEX
  5
146
330
141
100
AcDbEntity
  8
0
 62
     7
100
AcDbVertex
100
AcDb2dVertex
 10
83.72978764034052
 20
184.0939224073147
 30
0.0
  0
SEQEND
  5
147
330
141
100
AcDbEntity
  8
0
 62
     7
  0
ENDBLK
  5
140
330
13D
100
AcDbEntity
  8
0
100
AcDbBlockEnd
  0
BLOCK
  5
14A
330
148
100
AcDbEntity
  8
0
100
AcDbBlockBegin
  2
BLOCK_26
 70
     0
 10
0.0
 20
0.0
 30
0.0
  3
BLOCK_26
  1

  0
POLYLINE
  5
14C
330
148
100
AcDbEntity
  8
0
 62
     7
100
AcDb2dPolyline
 66
     1
 10
0.0
 20
0.0
 30
0.0
  0
VERTEX
  5
14D
330
14C
100
AcDbEntity
  8
0
 62
     7
100
AcDbVertex
100
AcDb2dVertex
 10
102.7797876403407
 20
184.0939224073147
 30
0.0
  0
VERTEX
  5
14E
330
14C
100
AcDbEntity
  8
0
 62
     7
100
AcDbVertex
100
AcDb2dVertex
 10
102.7797876403407
 20
170.0929344073146
 30
0.0
  0
VERTEX
  5
14F
330
14C
100
AcDbEntity
  8
0
 62
     7
100
AcDbVertex
100
AcDb2dVertex
 10
88.77879964034062
 20
170.0929344073146
 30
0.0
  0
VERTEX
  5
150
330
14C
100
AcDbEntity
  8
0
 62
     7
100
AcDbVertex
100
AcDb2dVertex
 10
88.77879964034062
 20
184.0939224073147
 30
0.0
  0
VERTEX
  5
151
330
14C
100
AcDbEntity
  8
0
 62
     7
100
AcDbVertex
100
AcDb2dVertex
 10
102.7797876403407
 20
184.0939224073147
 30
0.0
  0
SEQEND
  5
152
330
14C
100
AcDbEntity
  8
0
 62
     7
  0
ENDBLK
  5
14B
330
148
100
AcDbEntity
  8
0
100
AcDbBlockEnd
  0
BLOCK
  5
155
330
153
100
AcDbEntity
  8
0
100
AcDbBlockBegin
  2
BLOCK_27
 70
     0
 10
0.0
 20
0.0
 30
0.0
  3
BLOCK_27
  1

  0
POLYLINE
  5
157
330
153
100
AcDbEntity
  8
0
 62
     7
100
AcDb2dPolyline
 66
     1
 10
0.0
 20
0.0
 30
0.0
  0
VERTEX
  5
158
330
157
100
AcDbEntity
  8
0
 62
     7
100
AcDbVertex
100
AcDb2dVertex
 10
121.8297876403409
 20
184.0939224073147
 30
0.0
  0
VERTEX
  5
159
330
157
100
AcDbEntity
  8
0
 62
     7
100
AcDbVertex
100
AcDb2dVertex
 10
121.8297876403409
 20
170.0929344073146
 30
0.0
  0
VERTEX
  5
15A
330
157
100
AcDbEntity
  8
0
 62
     7
100
AcDbVertex
100
AcDb2dVertex
 10
107.8287996403405
 20
170.0929344073146
 30
0.0
  0
VERTEX
  5
15B
330
157
100
AcDbEntity
  8
0
 62
     7
100
AcDbVertex
100
AcDb2dVertex
 10
107.8287996403405
 20
184.0939224073147
 30
0.0
  0
VERTEX
  5
15C
330
157
100
AcDbEntity
  8
0
 62
     7
100
AcDbVertex
100
AcDb2dVertex
 10
121.8297876403409
 20
184.0939224073147
 30
0.0
  0
SEQEND
  5
15D
330
157
100
AcDbEntity
  8
0
 62
     7
  0
ENDBLK
  5
156
330
153
100
AcDbEntity
  8
0
100
AcDbBlockEnd
  0
BLOCK
  5
160
330
15E
100
AcDbEntity
  8
0
100
AcDbBlockBegin
  2
BLOCK_28
 70
     0
 10
0.0
 20
0.0
 30
0.0
  3
BLOCK_28
  1

  0
POLYLINE
  5
162
330
15E
100
AcDbEntity
  8
0
 62
     7
100
AcDb2dPolyline
 66
     1
 10
0.0
 20
0.0
 30
0.0
  0
VERTEX
  5
163
330
162
100
AcDbEntity
  8
0
 62
     7
100
AcDbVertex
100
AcDb2dVertex
 10
140.8797876403405
 20
184.0939224073147
 30
0.0
  0
VERTEX
  5
164
330
162
100
AcDbEntity
  8
0
 62
     7
100
AcDbVertex
100
AcDb2dVertex
 10
140.8797876403405
 20
170.0929344073146
 30
0.0
  0
VERTEX
  5
165
330
162
100
AcDbEntity
  8
0
 62
     7
100
AcDbVertex
100
AcDb2dVertex
 10
126.8787996403407
 20
170.0929344073146
 30
0.0
  0
VERTEX
  5
166
330
162
100
AcDbEntity
  8
0
 62
     7
100
AcDbVertex
100
AcDb2dVertex
 10
126.8787996403407
 20
184.0939224073147
 30
0.0
  0
VERTEX
  5
167
330
162
100
AcDbEntity
  8
0
 62
     7
100
AcDbVertex
100
AcDb2dVertex
 10
140.8797876403405
 20
184.0939224073147
 30
0.0
  0
SEQEND
  5
168
330
162
100
AcDbEntity
  8
0
 62
     7
  0
ENDBLK
  5
161
330
15E
100
AcDbEntity
  8
0
100
AcDbBlockEnd
  0
BLOCK
  5
16B
330
169
100
AcDbEntity
  8
0
100
AcDbBlockBegin
  2
BLOCK_29
 70
     0
 10
0.0
 20
0.0
 30
0.0
  3
BLOCK_29
  1

  0
POLYLINE
  5
16D
330
169
100
AcDbEntity
  8
0
 62
     7
100
AcDb2dPolyline
 66
     1
 10
0.0
 20
0.0
 30
0.0
  0
VERTEX
  5
16E
330
16D
100
AcDbEntity
  8
0
 62
     7
100
AcDbVertex
100
AcDb2dVertex
 10
159.9295336403407
 20
184.0939224073147
 30
0.0
  0
VERTEX
  5
16F
330
16D
100
AcDbEntity
  8
0
 62
     7
100
AcDbVertex
100
AcDb2dVertex
 10
159.9295336403407
 20
170.0929344073146
 30
0.0
  0
VERTEX
  5
170
330
16D
100
AcDbEntity
  8
0
 62
     7
100
AcDbVertex
100
AcDb2dVertex
 10
145.9285456403409
 20
170.0929344073146
 30
0.0
  0
VERTEX
  5
171
330
16D
100
AcDbEntity
  8
0
 62
     7
100
AcDbVertex
100
AcDb2dVertex
 10
145.9285456403409
 20
184.0939224073147
 30
0.0
  0
VERTEX
  5
172
330
16D
100
AcDbEntity
  8
0
 62
     7
100
AcDbVertex
100
AcDb2dVertex
 10
159.9295336403407
 20
184.0939224073147
 30
0.0
  0
SEQEND
  5
173
330
16D
100
AcDbEntity
  8
0
 62
     7
  0
ENDBLK
  5
16C
330
169
100
AcDbEntity
  8
0
100
AcDbBlockEnd
  0
BLOCK
  5
176
330
174
100
AcDbEntity
  8
0
100
AcDbBlockBegin
  2
BLOCK_30
 70
     0
 10
0.0
 20
0.0
 30
0.0
  3
BLOCK_30
  1

  0
POLYLINE
  5
178
330
174
100
AcDbEntity
  8
0
 62
     7
100
AcDb2dPolyline
 66
     1
 10
0.0
 20
0.0
 30
0.0
  0
VERTEX
  5
179
330
178
100
AcDbEntity
  8
0
 62
     7
100
AcDbVertex
100
AcDb2dVertex
 10
178.9795336403409
 20
184.0939224073147
 30
0.0
  0
VERTEX
  5
17A
330
178
100
AcDbEntity
  8
0
 62
     7
100
AcDbVertex
100
AcDb2dVertex
 10
178.9795336403409
 20
170.0929344073146
 30
0.0
  0
VERTEX
  5
17B
330
178
100
AcDbEntity
  8
0
 62
     7
100
AcDbVertex
100
AcDb2dVertex
 10
164.9785456403405
 20
170.0929344073146
 30
0.0
  0
VERTEX
  5
17C
330
178
100
AcDbEntity
  8
0
 62
     7
100
AcDbVertex
100
AcDb2dVertex
 10
164.9785456403405
 20
184.0939224073147
 30
0.0
  0
VERTEX
  5
17D
330
178
100
AcDbEntity
  8
0
 62
     7
100
AcDbVertex
100
AcDb2dVertex
 10
178.9795336403409
 20
184.0939224073147
 30
0.0
  0
SEQEND
  5
17E
330
178
100
AcDbEntity
  8
0
 62
     7
  0
ENDBLK
  5
177
330
174
100
AcDbEntity
  8
0
100
AcDbBlockEnd
  0
BLOCK
  5
181
330
17F
100
AcDbEntity
  8
0
100
AcDbBlockBegin
  2
BLOCK_31
 70
     0
 10
0.0
 20
0.0
 30
0.0
  3
BLOCK_31
  1

  0
POLYLINE
  5
183
330
17F
100
AcDbEntity
  8
0
 62
     7
100
AcDb2dPolyline
 66
     1
 10
0.0
 20
0.0
 30
0.0
  0
VERTEX
  5
184
330
183
100
AcDbEntity
  8
0
 62
     7
100
AcDbVertex
100
AcDb2dVertex
 10
198.0295336403404
 20
184.0939224073147
 30
0.0
  0
VERTEX
  5
185
330
183
100
AcDbEntity
  8
0
 62
     7
100
AcDbVertex
100
AcDb2dVertex
 10
198.0295336403404
 20
170.0929344073146
 30
0.0
  0
VERTEX
  5
186
330
183
100
AcDbEntity
  8
0
 62
     7
100
AcDbVertex
100
AcDb2dVertex
 10
184.0285456403407
 20
170.0929344073146
 30
0.0
  0
VERTEX
  5
187
330
183
100
AcDbEntity
  8
0
 62
     7
100
AcDbVertex
100
AcDb2dVertex
 10
184.0285456403407
 20
184.0939224073147
 30
0.0
  0
VERTEX
  5
188
330
183
100
AcDbEntity
  8
0
 62
     7
100
AcDbVertex
100
AcDb2dVertex
 10
198.0295336403404
 20
184.0939224073147
 30
0.0
  0
SEQEND
  5
189
330
183
100
AcDbEntity
  8
0
 62
     7
  0
ENDBLK
  5
182
330
17F
100
AcDbEntity
  8
0
100
AcDbBlockEnd
  0
BLOCK
  5
18C
330
18A
100
AcDbEntity
  8
0
100
AcDbBlockBegin
  2
BLOCK_32
 70
     0
 10
0.0
 20
0.0
 30
0.0
  3
BLOCK_32
  1

  0
POLYLINE
  5
18E
330
18A
100
AcDbEntity
  8
0
 62
     7
100
AcDb2dPolyline
 66
     1
 10
0.0
 20
0.0
 30
0.0
  0
VERTEX
  5
18F
330
18E
100
AcDbEntity
  8
0
 62
     7
100
AcDbVertex
100
AcDb2dVertex
 10
255.1795336403404
 20
184.0939224073147
 30
0.0
  0
VERTEX
  5
190
330
18E
100
AcDbEntity
  8
0
 62
     7
100
AcDbVertex
100
AcDb2dVertex
 10
255.1795336403404
 20
170.0929344073146
 30
0.0
  0
VERTEX
  5
191
330
18E
100
AcDbEntity
  8
0
 62
     7
100
AcDbVertex
100
AcDb2dVertex
 10
241.1785456403406
 20
170.0929344073146
 30
0.0
  0
VERTEX
  5
192
330
18E
100
AcDbEntity
  8
0
 62
     7
100
AcDbVertex
100
AcDb2dVertex
 10
241.1785456403406
 20
184.0939224073147
 30
0.0
  0
VERTEX
  5
193
330
18E
100
AcDbEntity
  8
0
 62
     7
100
AcDbVertex
100
AcDb2dVertex
 10
255.1795336403404
 20
184.0939224073147
 30
0.0
  0
SEQEND
  5
194
330
18E
100
AcDbEntity
  8
0
 62
     7
  0
ENDBLK
  5
18D
330
18A
100
AcDbEntity
  8
0
100
AcDbBlockEnd
  0
BLOCK
  5
197
330
195
100
AcDbEntity
  8
0
100
AcDbBlockBegin
  2
BLOCK_33
 70
     0
 10
0.0
 20
0.0
 30
0.0
  3
BLOCK_33
  1

  0
POLYLINE
  5
199
330
195
100
AcDbEntity
  8
0
 62
     7
100
AcDb2dPolyline
 66
     1
 10
0.0
 20
0.0
 30
0.0
  0
VERTEX
  5
19A
330
199
100
AcDbEntity
  8
0
 62
     7
100
AcDbVertex
100
AcDb2dVertex
 10
212.6035456403403
 20
179.3933984073146
 30
0.0
  0
VERTEX
  5
19B
330
199
100
AcDbEntity
  8
0
 62
     7
100
AcDbVertex
100
AcDb2dVertex
 10
211.0795456403409
 20
179.3933984073146
 30
0.0
  0
VERTEX
  5
19C
330
199
100
AcDbEntity
  8
0
 62
     7
100
AcDbVertex
100
AcDb2dVertex
 10
211.0795456403409
 20
182.6237704073147
 30
0.0
  0
VERTEX
  5
19D
330
199
100
AcDbEntity
  8
0
 62
     7
100
AcDbVertex
100
AcDb2dVertex
 10
204.3284796403404
 20
182.6237704073147
 30
0.0
  0
VERTEX
  5
19E
330
199
100
AcDbEntity
  8
0
 62
     7
100
AcDbVertex
100
AcDb2dVertex
 10
204.3284796403404
 20
179.3933984073146
 30
0.0
  0
VERTEX
  5
19F
330
199
100
AcDbEntity
  8
0
 62
     7
100
AcDbVertex
100
AcDb2dVertex
 10
203.5034876403406
 20
179.3933984073146
 30
0.0
  0
VERTEX
  5
1A0
330
199
100
AcDbEntity
  8
0
 62
     7
100
AcDbVertex
100
AcDb2dVertex
 10
203.5034876403406
 20
176.5933024073146
 30
0.0
  0
VERTEX
  5
1A1
330
199
100
AcDbEntity
  8
0
 62
     7
100
AcDbVertex
100
AcDb2dVertex
 10
204.3284796403404
 20
176.5933024073146
 30
0.0
  0
VERTEX
  5
1A2
330
199
100
AcDbEntity
  8
0
 62
     7
100
AcDbVertex
100
AcDb2dVertex
 10
204.3284796403404
 20
170.3235664073148
 30
0.0
  0
VERTEX
  5
1A3
330
199
100
AcDbEntity
  8
0
 62
     7
100
AcDbVertex
100
AcDb2dVertex
 10
206.0526316403408
 20
170.3235664073148
 30
0.0
  0
VERTEX
  5
1A4
330
199
100
AcDbEntity
  8
0
 62
     7
100
AcDbVertex
100
AcDb2dVertex
 10
206.0526316403408
 20
169.1244324073145
 30
0.0
  0
VERTEX
  5
1A5
330
199
100
AcDbEntity
  8
0
 62
     7
100
AcDbVertex
100
AcDb2dVertex
 10
209.3536156403403
 20
169.1244324073145
 30
0.0
  0
VERTEX
  5
1A6
330
199
100
AcDbEntity
  8
0
 62
     7
100
AcDbVertex
100
AcDb2dVertex
 10
209.3536156403409
 20
170.3235664073148
 30
0.0
  0
VERTEX
  5
1A7
330
199
100
AcDbEntity
  8
0
 62
     7
100
AcDbVertex
100
AcDb2dVertex
 10
211.0795456403409
 20
170.3235664073148
 30
0.0
  0
VERTEX
  5
1A8
330
199
100
AcDbEntity
  8
0
 62
     7
100
AcDbVertex
100
AcDb2dVertex
 10
211.0795456403409
 20
174.7934584073147
 30
0.0
  0
VERTEX
  5
1A9
330
199
100
AcDbEntity
  8
0
 62
     7
100
AcDbVertex
100
AcDb2dVertex
 10
212.6035456403403
 20
174.7934584073147
 30
0.0
  0
VERTEX
  5
1AA
330
199
100
AcDbEntity
  8
0
 62
     7
100
AcDbVertex
100
AcDb2dVertex
 10
212.6035456403403
 20
170.0929344073146
 30
0.0
  0
VERTEX
  5
1AB
330
199
100
AcDbEntity
  8
0
 62
     7
100
AcDbVertex
100
AcDb2dVertex
 10
226.6045336403407
 20
170.0929344073146
 30
0.0
  0
VERTEX
  5
1AC
330
199
100
AcDbEntity
  8
0
 62
     7
100
AcDbVertex
100
AcDb2dVertex
 10
226.6045336403407
 20
174.7934584073147
 30
0.0
  0
VERTEX
  5
1AD
330
199
100
AcDbEntity
  8
0
 62
     7
100
AcDbVertex
100
AcDb2dVertex
 10
228.1285336403408
 20
174.7934584073147
 30
0.0
  0
VERTEX
  5
1AE
330
199
100
AcDbEntity
  8
0
 62
     7
100
AcDbVertex
100
AcDb2dVertex
 10
228.1285336403408
 20
170.3235664073148
 30
0.0
  0
VERTEX
  5
1AF
330
199
100
AcDbEntity
  8
0
 62
     7
100
AcDbVertex
100
AcDb2dVertex
 10
229.8534476403404
 20
170.3235664073148
 30
0.0
  0
VERTEX
  5
1B0
330
199
100
AcDbEntity
  8
0
 62
     7
100
AcDbVertex
100
AcDb2dVertex
 10
229.8534476403404
 20
169.1244324073145
 30
0.0
  0
VERTEX
  5
1B1
330
199
100
AcDbEntity
  8
0
 62
     7
100
AcDbVertex
100
AcDb2dVertex
 10
233.1534156403408
 20
169.1244324073145
 30
0.0
  0
VERTEX
  5
1B2
330
199
100
AcDbEntity
  8
0
 62
     7
100
AcDbVertex
100
AcDb2dVertex
 10
233.1534156403408
 20
170.3235664073148
 30
0.0
  0
VERTEX
  5
1B3
330
199
100
AcDbEntity
  8
0
 62
     7
100
AcDbVertex
100
AcDb2dVertex
 10
234.8775676403406
 20
170.3235664073148
 30
0.0
  0
VERTEX
  5
1B4
330
199
100
AcDbEntity
  8
0
 62
     7
100
AcDbVertex
100
AcDb2dVertex
 10
234.8775676403406
 20
176.5933024073146
 30
0.0
  0
VERTEX
  5
1B5
330
199
100
AcDbEntity
  8
0
 62
     7
100
AcDbVertex
100
AcDb2dVertex
 10
235.7035756403407
 20
176.5933024073146
 30
0.0
  0
VERTEX
  5
1B6
330
199
100
AcDbEntity
  8
0
 62
     7
100
AcDbVertex
100
AcDb2dVertex
 10
235.7035756403407
 20
179.3933984073146
 30
0.0
  0
VERTEX
  5
1B7
330
199
100
AcDbEntity
  8
0
 62
     7
100
AcDbVertex
100
AcDb2dVertex
 10
234.8775676403406
 20
179.3933984073146
 30
0.0
  0
VERTEX
  5
1B8
330
199
100
AcDbEntity
  8
0
 62
     7
100
AcDbVertex
100
AcDb2dVertex
 10
234.8775676403406
 20
182.6237704073147
 30
0.0
  0
VERTEX
  5
1B9
330
199
100
AcDbEntity
  8
0
 62
     7
100
AcDbVertex
100
AcDb2dVertex
 10
228.1285336403408
 20
182.6237704073147
 30
0.0
  0
VERTEX
  5
1BA
330
199
100
AcDbEntity
  8
0
 62
     7
100
AcDbVertex
100
AcDb2dVertex
 10
228.1285336403408
 20
179.3933984073146
 30
0.0
  0
VERTEX
  5
1BB
330
199
100
AcDbEntity
  8
0
 62
     7
100
AcDbVertex
100
AcDb2dVertex
 10
226.6045336403407
 20
179.3933984073146
 30
0.0
  0
VERTEX
  5
1BC
330
199
100
AcDbEntity
  8
0
 62
     7
100
AcDbVertex
100
AcDb2dVertex
 10
226.6045336403407
 20
184.0939224073147
 30
0.0
  0
VERTEX
  5
1BD
330
199
100
AcDbEntity
  8
0
 62
     7
100
AcDbVertex
100
AcDb2dVertex
 10
212.603545640341
 20
184.0939224073147
 30
0.0
  0
VERTEX
  5
1BE
330
199
100
AcDbEntity
  8
0
 62
     7
100
AcDbVertex
100
AcDb2dVertex
 10
212.6035456403403
 20
179.3933984073146
 30
0.0
  0
SEQEND
  5
1BF
330
199
100
AcDbEntity
  8
0
 62
     7
  0
ENDBLK
  5
198
330
195
100
AcDbEntity
  8
0
100
AcDbBlockEnd
  0
BLOCK
  5
1C2
330
1C0
100
AcDbEntity
  8
0
100
AcDbBlockBegin
  2
BLOCK_34
 70
     0
 10
0.0
 20
0.0
 30
0.0
  3
BLOCK_34
  1

  0
POLYLINE
  5
1C4
330
1C0
100
AcDbEntity
  8
0
 62
     7
100
AcDb2dPolyline
 66
     1
 10
0.0
 20
0.0
 30
0.0
  0
VERTEX
  5
1C5
330
1C4
100
AcDbEntity
  8
0
 62
     7
100
AcDbVertex
100
AcDb2dVertex
 10
-25.80923635965924
 20
165.0441764073144
 30
0.0
  0
VERTEX
  5
1C6
330
1C4
100
AcDbEntity
  8
0
 62
     7
100
AcDbVertex
100
AcDb2dVertex
 10
-25.80923635965924
 20
151.0431884073147
 30
0.0
  0
VERTEX
  5
1C7
330
1C4
100
AcDbEntity
  8
0
 62
     7
100
AcDbVertex
100
AcDb2dVertex
 10
-39.80870035965938
 20
151.0431884073147
 30
0.0
  0
VERTEX
  5
1C8
330
1C4
100
AcDbEntity
  8
0
 62
     7
100
AcDbVertex
100
AcDb2dVertex
 10
-39.80870035965938
 20
165.0441764073144
 30
0.0
  0
VERTEX
  5
1C9
330
1C4
100
AcDbEntity
  8
0
 62
     7
100
AcDbVertex
100
AcDb2dVertex
 10
-25.80923635965924
 20
165.0441764073144
 30
0.0
  0
SEQEND
  5
1CA
330
1C4
100
AcDbEntity
  8
0
 62
     7
  0
ENDBLK
  5
1C3
330
1C0
100
AcDbEntity
  8
0
100
AcDbBlockEnd
  0
BLOCK
  5
1CD
330
1CB
100
AcDbEntity
  8
0
100
AcDbBlockBegin
  2
BLOCK_35
 70
     0
 10
0.0
 20
0.0
 30
0.0
  3
BLOCK_35
  1

  0
POLYLINE
  5
1CF
330
1CB
100
AcDbEntity
  8
0
 62
     7
100
AcDb2dPolyline
 66
     1
 10
0.0
 20
0.0
 30
0.0
  0
VERTEX
  5
1D0
330
1CF
100
AcDbEntity
  8
0
 62
     7
100
AcDbVertex
100
AcDb2dVertex
 10
-1.995466359659323
 20
165.0441764073144
 30
0.0
  0
VERTEX
  5
1D1
330
1CF
100
AcDbEntity
  8
0
 62
     7
100
AcDbVertex
100
AcDb2dVertex
 10
-1.995466359659323
 20
151.0431884073147
 30
0.0
  0
VERTEX
  5
1D2
330
1CF
100
AcDbEntity
  8
0
 62
     7
100
AcDbVertex
100
AcDb2dVertex
 10
-15.99620035965946
 20
151.0431884073147
 30
0.0
  0
VERTEX
  5
1D3
330
1CF
100
AcDbEntity
  8
0
 62
     7
100
AcDbVertex
100
AcDb2dVertex
 10
-15.99620035965946
 20
165.0441764073144
 30
0.0
  0
VERTEX
  5
1D4
330
1CF
100
AcDbEntity
  8
0
 62
     7
100
AcDbVertex
100
AcDb2dVertex
 10
-1.995466359659323
 20
165.0441764073144
 30
0.0
  0
SEQEND
  5
1D5
330
1CF
100
AcDbEntity
  8
0
 62
     7
  0
ENDBLK
  5
1CE
330
1CB
100
AcDbEntity
  8
0
100
AcDbBlockEnd
  0
BLOCK
  5
1D8
330
1D6
100
AcDbEntity
  8
0
100
AcDbBlockBegin
  2
BLOCK_36
 70
     0
 10
0.0
 20
0.0
 30
0.0
  3
BLOCK_36
  1

  0
POLYLINE
  5
1DA
330
1D6
100
AcDbEntity
  8
0
 62
     7
100
AcDb2dPolyline
 66
     1
 10
0.0
 20
0.0
 30
0.0
  0
VERTEX
  5
1DB
330
1DA
100
AcDbEntity
  8
0
 62
     7
100
AcDbVertex
100
AcDb2dVertex
 10
17.05453364034055
 20
165.0441764073144
 30
0.0
  0
VERTEX
  5
1DC
330
1DA
100
AcDbEntity
  8
0
 62
     7
100
AcDbVertex
100
AcDb2dVertex
 10
17.05453364034055
 20
151.0431884073147
 30
0.0
  0
VERTEX
  5
1DD
330
1DA
100
AcDbEntity
  8
0
 62
     7
100
AcDbVertex
100
AcDb2dVertex
 10
3.053545640340468
 20
151.0431884073147
 30
0.0
  0
VERTEX
  5
1DE
330
1DA
100
AcDbEntity
  8
0
 62
     7
100
AcDbVertex
100
AcDb2dVertex
 10
3.053545640340468
 20
165.0441764073144
 30
0.0
  0
VERTEX
  5
1DF
330
1DA
100
AcDbEntity
  8
0
 62
     7
100
AcDbVertex
100
AcDb2dVertex
 10
17.05453364034055
 20
165.0441764073144
 30
0.0
  0
SEQEND
  5
1E0
330
1DA
100
AcDbEntity
  8
0
 62
     7
  0
ENDBLK
  5
1D9
330
1D6
100
AcDbEntity
  8
0
100
AcDbBlockEnd
  0
BLOCK
  5
1E3
330
1E1
100
AcDbEntity
  8
0
100
AcDbBlockBegin
  2
BLOCK_37
 70
     0
 10
0.0
 20
0.0
 30
0.0
  3
BLOCK_37
  1

  0
POLYLINE
  5
1E5
330
1E1
100
AcDbEntity
  8
0
 62
     7
100
AcDb2dPolyline
 66
     1
 10
0.0
 20
0.0
 30
0.0
  0
VERTEX
  5
1E6
330
1E5
100
AcDbEntity
  8
0
 62
     7
100
AcDbVertex
100
AcDb2dVertex
 10
36.10453364034074
 20
165.0441764073144
 30
0.0
  0
VERTEX
  5
1E7
330
1E5
100
AcDbEntity
  8
0
 62
     7
100
AcDbVertex
100
AcDb2dVertex
 10
36.10453364034074
 20
151.0431884073147
 30
0.0
  0
VERTEX
  5
1E8
330
1E5
100
AcDbEntity
  8
0
 62
     7
100
AcDbVertex
100
AcDb2dVertex
 10
22.10354564034066
 20
151.0431884073147
 30
0.0
  0
VERTEX
  5
1E9
330
1E5
100
AcDbEntity
  8
0
 62
     7
100
AcDbVertex
100
AcDb2dVertex
 10
22.10354564034066
 20
165.0441764073144
 30
0.0
  0
VERTEX
  5
1EA
330
1E5
100
AcDbEntity
  8
0
 62
     7
100
AcDbVertex
100
AcDb2dVertex
 10
36.10453364034074
 20
165.0441764073144
 30
0.0
  0
SEQEND
  5
1EB
330
1E5
100
AcDbEntity
  8
0
 62
     7
  0
ENDBLK
  5
1E4
330
1E1
100
AcDbEntity
  8
0
100
AcDbBlockEnd
  0
BLOCK
  5
1EE
330
1EC
100
AcDbEntity
  8
0
100
AcDbBlockBegin
  2
BLOCK_38
 70
     0
 10
0.0
 20
0.0
 30
0.0
  3
BLOCK_38
  1

  0
POLYLINE
  5
1F0
330
1EC
100
AcDbEntity
  8
0
 62
     7
100
AcDb2dPolyline
 66
     1
 10
0.0
 20
0.0
 30
0.0
  0
VERTEX
  5
1F1
330
1F0
100
AcDbEntity
  8
0
 62
     7
100
AcDbVertex
100
AcDb2dVertex
 10
55.15478764034054
 20
165.0441764073144
 30
0.0
  0
VERTEX
  5
1F2
330
1F0
100
AcDbEntity
  8
0
 62
     7
100
AcDbVertex
100
AcDb2dVertex
 10
55.15478764034054
 20
151.0431884073147
 30
0.0
  0
VERTEX
  5
1F3
330
1F0
100
AcDbEntity
  8
0
 62
     7
100
AcDbVertex
100
AcDb2dVertex
 10
41.15354564034053
 20
151.0431884073147
 30
0.0
  0
VERTEX
  5
1F4
330
1F0
100
AcDbEntity
  8
0
 62
     7
100
AcDbVertex
100
AcDb2dVertex
 10
41.15354564034053
 20
165.0441764073144
 30
0.0
  0
VERTEX
  5
1F5
330
1F0
100
AcDbEntity
  8
0
 62
     7
100
AcDbVertex
100
AcDb2dVertex
 10
55.15478764034054
 20
165.0441764073144
 30
0.0
  0
SEQEND
  5
1F6
330
1F0
100
AcDbEntity
  8
0
 62
     7
  0
ENDBLK
  5
1EF
330
1EC
100
AcDbEntity
  8
0
100
AcDbBlockEnd
  0
BLOCK
  5
1F9
330
1F7
100
AcDbEntity
  8
0
100
AcDbBlockBegin
  2
BLOCK_39
 70
     0
 10
0.0
 20
0.0
 30
0.0
  3
BLOCK_39
  1

  0
POLYLINE
  5
1FB
330
1F7
100
AcDbEntity
  8
0
 62
     7
100
AcDb2dPolyline
 66
     1
 10
0.0
 20
0.0
 30
0.0
  0
VERTEX
  5
1FC
330
1FB
100
AcDbEntity
  8
0
 62
     7
100
AcDbVertex
100
AcDb2dVertex
 10
74.20478764034074
 20
165.0441764073144
 30
0.0
  0
VERTEX
  5
1FD
330
1FB
100
AcDbEntity
  8
0
 62
     7
100
AcDbVertex
100
AcDb2dVertex
 10
74.20478764034074
 20
151.0431884073147
 30
0.0
  0
VERTEX
  5
1FE
330
1FB
100
AcDbEntity
  8
0
 62
     7
100
AcDbVertex
100
AcDb2dVertex
 10
60.20379964034066
 20
151.0431884073147
 30
0.0
  0
VERTEX
  5
1FF
330
1FB
100
AcDbEntity
  8
0
 62
     7
100
AcDbVertex
100
AcDb2dVertex
 10
60.20379964034066
 20
165.0441764073144
 30
0.0
  0
VERTEX
  5
200
330
1FB
100
AcDbEntity
  8
0
 62
     7
100
AcDbVertex
100
AcDb2dVertex
 10
74.20478764034074
 20
165.0441764073144
 30
0.0
  0
SEQEND
  5
201
330
1FB
100
AcDbEntity
  8
0
 62
     7
  0
ENDBLK
  5
1FA
330
1F7
100
AcDbEntity
  8
0
100
AcDbBlockEnd
  0
BLOCK
  5
204
330
202
100
AcDbEntity
  8
0
100
AcDbBlockBegin
  2
BLOCK_40
 70
     0
 10
0.0
 20
0.0
 30
0.0
  3
BLOCK_40
  1

  0
POLYLINE
  5
206
330
202
100
AcDbEntity
  8
0
 62
     7
100
AcDb2dPolyline
 66
     1
 10
0.0
 20
0.0
 30
0.0
  0
VERTEX
  5
207
330
206
100
AcDbEntity
  8
0
 62
     7
100
AcDbVertex
100
AcDb2dVertex
 10
93.25478764034061
 20
165.0441764073144
 30
0.0
  0
VERTEX
  5
208
330
206
100
AcDbEntity
  8
0
 62
     7
100
AcDbVertex
100
AcDb2dVertex
 10
93.25478764034061
 20
151.0431884073147
 30
0.0
  0
VERTEX
  5
209
330
206
100
AcDbEntity
  8
0
 62
     7
100
AcDbVertex
100
AcDb2dVertex
 10
79.25379964034053
 20
151.0431884073147
 30
0.0
  0
VERTEX
  5
20A
330
206
100
AcDbEntity
  8
0
 62
     7
100
AcDbVertex
100
AcDb2dVertex
 10
79.25379964034053
 20
165.0441764073144
 30
0.0
  0
VERTEX
  5
20B
330
206
100
AcDbEntity
  8
0
 62
     7
100
AcDbVertex
100
AcDb2dVertex
 10
93.25478764034061
 20
165.0441764073144
 30
0.0
  0
SEQEND
  5
20C
330
206
100
AcDbEntity
  8
0
 62
     7
  0
ENDBLK
  5
205
330
202
100
AcDbEntity
  8
0
100
AcDbBlockEnd
  0
BLOCK
  5
20F
330
20D
100
AcDbEntity
  8
0
100
AcDbBlockBegin
  2
BLOCK_41
 70
     0
 10
0.0
 20
0.0
 30
0.0
  3
BLOCK_41
  1

  0
POLYLINE
  5
211
330
20D
100
AcDbEntity
  8
0
 62
     7
100
AcDb2dPolyline
 66
     1
 10
0.0
 20
0.0
 30
0.0
  0
VERTEX
  5
212
330
211
100
AcDbEntity
  8
0
 62
     7
100
AcDbVertex
100
AcDb2dVertex
 10
112.3047876403408
 20
165.0441764073144
 30
0.0
  0
VERTEX
  5
213
330
211
100
AcDbEntity
  8
0
 62
     7
100
AcDbVertex
100
AcDb2dVertex
 10
112.3047876403408
 20
151.0431884073147
 30
0.0
  0
VERTEX
  5
214
330
211
100
AcDbEntity
  8
0
 62
     7
100
AcDbVertex
100
AcDb2dVertex
 10
98.30379964034071
 20
151.0431884073147
 30
0.0
  0
VERTEX
  5
215
330
211
100
AcDbEntity
  8
0
 62
     7
100
AcDbVertex
100
AcDb2dVertex
 10
98.30379964034071
 20
165.0441764073144
 30
0.0
  0
VERTEX
  5
216
330
211
100
AcDbEntity
  8
0
 62
     7
100
AcDbVertex
100
AcDb2dVertex
 10
112.3047876403408
 20
165.0441764073144
 30
0.0
  0
SEQEND
  5
217
330
211
100
AcDbEntity
  8
0
 62
     7
  0
ENDBLK
  5
210
330
20D
100
AcDbEntity
  8
0
100
AcDbBlockEnd
  0
BLOCK
  5
21A
330
218
100
AcDbEntity
  8
0
100
AcDbBlockBegin
  2
BLOCK_42
 70
     0
 10
0.0
 20
0.0
 30
0.0
  3
BLOCK_42
  1

  0
POLYLINE
  5
21C
330
218
100
AcDbEntity
  8
0
 62
     7
100
AcDb2dPolyline
 66
     1
 10
0.0
 20
0.0
 30
0.0
  0
VERTEX
  5
21D
330
21C
100
AcDbEntity
  8
0
 62
     7
100
AcDbVertex
100
AcDb2dVertex
 10
131.3547876403404
 20
165.0441764073144
 30
0.0
  0
VERTEX
  5
21E
330
21C
100
AcDbEntity
  8
0
 62
     7
100
AcDbVertex
100
AcDb2dVertex
 10
131.3547876403404
 20
151.0431884073147
 30
0.0
  0
VERTEX
  5
21F
330
21C
100
AcDbEntity
  8
0
 62
     7
100
AcDbVertex
100
AcDb2dVertex
 10
117.3537996403406
 20
151.0431884073147
 30
0.0
  0
VERTEX
  5
220
330
21C
100
AcDbEntity
  8
0
 62
     7
100
AcDbVertex
100
AcDb2dVertex
 10
117.3537996403406
 20
165.0441764073144
 30
0.0
  0
VERTEX
  5
221
330
21C
100
AcDbEntity
  8
0
 62
     7
100
AcDbVertex
100
AcDb2dVertex
 10
131.3547876403404
 20
165.0441764073144
 30
0.0
  0
SEQEND
  5
222
330
21C
100
AcDbEntity
  8
0
 62
     7
  0
ENDBLK
  5
21B
330
218
100
AcDbEntity
  8
0
100
AcDbBlockEnd
  0
BLOCK
  5
225
330
223
100
AcDbEntity
  8
0
100
AcDbBlockBegin
  2
BLOCK_43
 70
     0
 10
0.0
 20
0.0
 30
0.0
  3
BLOCK_43
  1

  0
POLYLINE
  5
227
330
223
100
AcDbEntity
  8
0
 62
     7
100
AcDb2dPolyline
 66
     1
 10
0.0
 20
0.0
 30
0.0
  0
VERTEX
  5
228
330
227
100
AcDbEntity
  8
0
 62
     7
100
AcDbVertex
100
AcDb2dVertex
 10
150.4045336403406
 20
165.0441764073144
 30
0.0
  0
VERTEX
  5
229
330
227
100
AcDbEntity
  8
0
 62
     7
100
AcDbVertex
100
AcDb2dVertex
 10
150.4045336403406
 20
151.0431884073147
 30
0.0
  0
VERTEX
  5
22A
330
227
100
AcDbEntity
  8
0
 62
     7
100
AcDbVertex
100
AcDb2dVertex
 10
136.4037996403408
 20
151.0431884073147
 30
0.0
  0
VERTEX
  5
22B
330
227
100
AcDbEntity
  8
0
 62
     7
100
AcDbVertex
100
AcDb2dVertex
 10
136.4037996403408
 20
165.0441764073144
 30
0.0
  0
VERTEX
  5
22C
330
227
100
AcDbEntity
  8
0
 62
     7
100
AcDbVertex
100
AcDb2dVertex
 10
150.4045336403406
 20
165.0441764073144
 30
0.0
  0
SEQEND
  5
22D
330
227
100
AcDbEntity
  8
0
 62
     7
  0
ENDBLK
  5
226
330
223
100
AcDbEntity
  8
0
100
AcDbBlockEnd
  0
BLOCK
  5
230
330
22E
100
AcDbEntity
  8
0
100
AcDbBlockBegin
  2
BLOCK_44
 70
     0
 10
0.0
 20
0.0
 30
0.0
  3
BLOCK_44
  1

  0
POLYLINE
  5
232
330
22E
100
AcDbEntity
  8
0
 62
     7
100
AcDb2dPolyline
 66
     1
 10
0.0
 20
0.0
 30
0.0
  0
VERTEX
  5
233
330
232
100
AcDbEntity
  8
0
 62
     7
100
AcDbVertex
100
AcDb2dVertex
 10
169.4545336403408
 20
165.0441764073144
 30
0.0
  0
VERTEX
  5
234
330
232
100
AcDbEntity
  8
0
 62
     7
100
AcDbVertex
100
AcDb2dVertex
 10
169.4545336403408
 20
151.0431884073147
 30
0.0
  0
VERTEX
  5
235
330
232
100
AcDbEntity
  8
0
 62
     7
100
AcDbVertex
100
AcDb2dVertex
 10
155.4535456403404
 20
151.0431884073147
 30
0.0
  0
VERTEX
  5
236
330
232
100
AcDbEntity
  8
0
 62
     7
100
AcDbVertex
100
AcDb2dVertex
 10
155.4535456403404
 20
165.0441764073144
 30
0.0
  0
VERTEX
  5
237
330
232
100
AcDbEntity
  8
0
 62
     7
100
AcDbVertex
100
AcDb2dVertex
 10
169.4545336403408
 20
165.0441764073144
 30
0.0
  0
SEQEND
  5
238
330
232
100
AcDbEntity
  8
0
 62
     7
  0
ENDBLK
  5
231
330
22E
100
AcDbEntity
  8
0
100
AcDbBlockEnd
  0
BLOCK
  5
23B
330
239
100
AcDbEntity
  8
0
100
AcDbBlockBegin
  2
BLOCK_45
 70
     0
 10
0.0
 20
0.0
 30
0.0
  3
BLOCK_45
  1

  0
POLYLINE
  5
23D
330
239
100
AcDbEntity
  8
0
 62
     7
100
AcDb2dPolyline
 66
     1
 10
0.0
 20
0.0
 30
0.0
  0
VERTEX
  5
23E
330
23D
100
AcDbEntity
  8
0
 62
     7
100
AcDbVertex
100
AcDb2dVertex
 10
188.5045336403404
 20
165.0441764073144
 30
0.0
  0
VERTEX
  5
23F
330
23D
100
AcDbEntity
  8
0
 62
     7
100
AcDbVertex
100
AcDb2dVertex
 10
188.5045336403404
 20
151.0431884073147
 30
0.0
  0
VERTEX
  5
240
330
23D
100
AcDbEntity
  8
0
 62
     7
100
AcDbVertex
100
AcDb2dVertex
 10
174.5035456403406
 20
151.0431884073147
 30
0.0
  0
VERTEX
  5
241
330
23D
100
AcDbEntity
  8
0
 62
     7
100
AcDbVertex
100
AcDb2dVertex
 10
174.5035456403406
 20
165.0441764073144
 30
0.0
  0
VERTEX
  5
242
330
23D
100
AcDbEntity
  8
0
 62
     7
100
AcDbVertex
100
AcDb2dVertex
 10
188.5045336403404
 20
165.0441764073144
 30
0.0
  0
SEQEND
  5
243
330
23D
100
AcDbEntity
  8
0
 62
     7
  0
ENDBLK
  5
23C
330
239
100
AcDbEntity
  8
0
100
AcDbBlockEnd
  0
BLOCK
  5
246
330
244
100
AcDbEntity
  8
0
100
AcDbBlockBegin
  2
BLOCK_46
 70
     0
 10
0.0
 20
0.0
 30
0.0
  3
BLOCK_46
  1

  0
POLYLINE
  5
248
330
244
100
AcDbEntity
  8
0
 62
     7
100
AcDb2dPolyline
 66
     1
 10
0.0
 20
0.0
 30
0.0
  0
VERTEX
  5
249
330
248
100
AcDbEntity
  8
0
 62
     7
100
AcDbVertex
100
AcDb2dVertex
 10
207.5525016403404
 20
165.0441764073144
 30
0.0
  0
VERTEX
  5
24A
330
248
100
AcDbEntity
  8
0
 62
     7
100
AcDbVertex
100
AcDb2dVertex
 10
207.5525016403404
 20
151.0431884073147
 30
0.0
  0
VERTEX
  5
24B
330
248
100
AcDbEntity
  8
0
 62
     7
100
AcDbVertex
100
AcDb2dVertex
 10
193.5535456403408
 20
151.0431884073147
 30
0.0
  0
VERTEX
  5
24C
330
248
100
AcDbEntity
  8
0
 62
     7
100
AcDbVertex
100
AcDb2dVertex
 10
193.5535456403408
 20
165.0441764073144
 30
0.0
  0
VERTEX
  5
24D
330
248
100
AcDbEntity
  8
0
 62
     7
100
AcDbVertex
100
AcDb2dVertex
 10
207.5525016403404
 20
165.0441764073144
 30
0.0
  0
SEQEND
  5
24E
330
248
100
AcDbEntity
  8
0
 62
     7
  0
ENDBLK
  5
247
330
244
100
AcDbEntity
  8
0
100
AcDbBlockEnd
  0
BLOCK
  5
251
330
24F
100
AcDbEntity
  8
0
100
AcDbBlockBegin
  2
BLOCK_47
 70
     0
 10
0.0
 20
0.0
 30
0.0
  3
BLOCK_47
  1

  0
POLYLINE
  5
253
330
24F
100
AcDbEntity
  8
0
 62
     7
100
AcDb2dPolyline
 66
     1
 10
0.0
 20
0.0
 30
0.0
  0
VERTEX
  5
254
330
253
100
AcDbEntity
  8
0
 62
     7
100
AcDbVertex
100
AcDb2dVertex
 10
231.3655096403408
 20
165.0441764073144
 30
0.0
  0
VERTEX
  5
255
330
253
100
AcDbEntity
  8
0
 62
     7
100
AcDbVertex
100
AcDb2dVertex
 10
231.3655096403408
 20
151.0431884073147
 30
0.0
  0
VERTEX
  5
256
330
253
100
AcDbEntity
  8
0
 62
     7
100
AcDbVertex
100
AcDb2dVertex
 10
217.3655376403408
 20
151.0431884073147
 30
0.0
  0
VERTEX
  5
257
330
253
100
AcDbEntity
  8
0
 62
     7
100
AcDbVertex
100
AcDb2dVertex
 10
217.3655376403408
 20
165.0441764073144
 30
0.0
  0
VERTEX
  5
258
330
253
100
AcDbEntity
  8
0
 62
     7
100
AcDbVertex
100
AcDb2dVertex
 10
231.3655096403408
 20
165.0441764073144
 30
0.0
  0
SEQEND
  5
259
330
253
100
AcDbEntity
  8
0
 62
     7
  0
ENDBLK
  5
252
330
24F
100
AcDbEntity
  8
0
100
AcDbBlockEnd
  0
BLOCK
  5
25C
330
25A
100
AcDbEntity
  8
0
100
AcDbBlockBegin
  2
BLOCK_48
 70
     0
 10
0.0
 20
0.0
 30
0.0
  3
BLOCK_48
  1

  0
POLYLINE
  5
25E
330
25A
100
AcDbEntity
  8
0
 62
     7
100
AcDb2dPolyline
 66
     1
 10
0.0
 20
0.0
 30
0.0
  0
VERTEX
  5
25F
330
25E
100
AcDbEntity
  8
0
 62
     7
100
AcDbVertex
100
AcDb2dVertex
 10
255.1795336403404
 20
165.0441764073144
 30
0.0
  0
VERTEX
  5
260
330
25E
100
AcDbEntity
  8
0
 62
     7
100
AcDbVertex
100
AcDb2dVertex
 10
255.1795336403404
 20
151.0431884073147
 30
0.0
  0
VERTEX
  5
261
330
25E
100
AcDbEntity
  8
0
 62
     7
100
AcDbVertex
100
AcDb2dVertex
 10
241.1785456403406
 20
151.0431884073147
 30
0.0
  0
VERTEX
  5
262
330
25E
100
AcDbEntity
  8
0
 62
     7
100
AcDbVertex
100
AcDb2dVertex
 10
241.1785456403406
 20
165.0441764073144
 30
0.0
  0
VERTEX
  5
263
330
25E
100
AcDbEntity
  8
0
 62
     7
100
AcDbVertex
100
AcDb2dVertex
 10
255.1795336403404
 20
165.0441764073144
 30
0.0
  0
SEQEND
  5
264
330
25E
100
AcDbEntity
  8
0
 62
     7
  0
ENDBLK
  5
25D
330
25A
100
AcDbEntity
  8
0
100
AcDbBlockEnd
  0
BLOCK
  5
267
330
265
100
AcDbEntity
  8
0
100
AcDbBlockBegin
  2
BLOCK_49
 70
     0
 10
0.0
 20
0.0
 30
0.0
  3
BLOCK_49
  1

  0
POLYLINE
  5
269
330
265
100
AcDbEntity
  8
0
 62
     7
100
AcDb2dPolyline
 66
     1
 10
0.0
 20
0.0
 30
0.0
  0
VERTEX
  5
26A
330
269
100
AcDbEntity
  8
0
 62
     7
100
AcDbVertex
100
AcDb2dVertex
 10
-23.42798635965938
 20
145.9941764073149
 30
0.0
  0
VERTEX
  5
26B
330
269
100
AcDbEntity
  8
0
 62
     7
100
AcDbVertex
100
AcDb2dVertex
 10
-23.42798635965938
 20
131.9931884073145
 30
0.0
  0
VERTEX
  5
26C
330
269
100
AcDbEntity
  8
0
 62
     7
100
AcDbVertex
100
AcDb2dVertex
 10
-37.42745035965952
 20
131.9931884073145
 30
0.0
  0
VERTEX
  5
26D
330
269
100
AcDbEntity
  8
0
 62
     7
100
AcDbVertex
100
AcDb2dVertex
 10
-37.42745035965952
 20
145.9941764073149
 30
0.0
  0
VERTEX
  5
26E
330
269
100
AcDbEntity
  8
0
 62
     7
100
AcDbVertex
100
AcDb2dVertex
 10
-23.42798635965938
 20
145.9941764073149
 30
0.0
  0
SEQEND
  5
26F
330
269
100
AcDbEntity
  8
0
 62
     7
  0
ENDBLK
  5
268
330
265
100
AcDbEntity
  8
0
100
AcDbBlockEnd
  0
BLOCK
  5
272
330
270
100
AcDbEntity
  8
0
100
AcDbBlockBegin
  2
BLOCK_50
 70
     0
 10
0.0
 20
0.0
 30
0.0
  3
BLOCK_50
  1

  0
POLYLINE
  5
274
330
270
100
AcDbEntity
  8
0
 62
     7
100
AcDb2dPolyline
 66
     1
 10
0.0
 20
0.0
 30
0.0
  0
VERTEX
  5
275
330
274
100
AcDbEntity
  8
0
 62
     7
100
AcDbVertex
100
AcDb2dVertex
 10
2.76576364034072
 20
145.9941764073149
 30
0.0
  0
VERTEX
  5
276
330
274
100
AcDbEntity
  8
0
 62
     7
100
AcDbVertex
100
AcDb2dVertex
 10
2.76576364034072
 20
131.9931884073145
 30
0.0
  0
VERTEX
  5
277
330
274
100
AcDbEntity
  8
0
 62
     7
100
AcDbVertex
100
AcDb2dVertex
 10
-11.23395435965935
 20
131.9931884073145
 30
0.0
  0
VERTEX
  5
278
330
274
100
AcDbEntity
  8
0
 62
     7
100
AcDbVertex
100
AcDb2dVertex
 10
-11.23395435965935
 20
145.9941764073149
 30
0.0
  0
VERTEX
  5
279
330
274
100
AcDbEntity
  8
0
 62
     7
100
AcDbVertex
100
AcDb2dVertex
 10
2.76576364034072
 20
145.9941764073149
 30
0.0
  0
SEQEND
  5
27A
330
274
100
AcDbEntity
  8
0
 62
     7
  0
ENDBLK
  5
273
330
270
100
AcDbEntity
  8
0
100
AcDbBlockEnd
  0
BLOCK
  5
27D
330
27B
100
AcDbEntity
  8
0
100
AcDbBlockBegin
  2
BLOCK_51
 70
     0
 10
0.0
 20
0.0
 30
0.0
  3
BLOCK_51
  1

  0
POLYLINE
  5
27F
330
27B
100
AcDbEntity
  8
0
 62
     7
100
AcDb2dPolyline
 66
     1
 10
0.0
 20
0.0
 30
0.0
  0
VERTEX
  5
280
330
27F
100
AcDbEntity
  8
0
 62
     7
100
AcDbVertex
100
AcDb2dVertex
 10
21.81576364034059
 20
145.9941764073149
 30
0.0
  0
VERTEX
  5
281
330
27F
100
AcDbEntity
  8
0
 62
     7
100
AcDbVertex
100
AcDb2dVertex
 10
21.81576364034059
 20
131.9931884073145
 30
0.0
  0
VERTEX
  5
282
330
27F
100
AcDbEntity
  8
0
 62
     7
100
AcDbVertex
100
AcDb2dVertex
 10
7.816045640340516
 20
131.9931884073145
 30
0.0
  0
VERTEX
  5
283
330
27F
100
AcDbEntity
  8
0
 62
     7
100
AcDbVertex
100
AcDb2dVertex
 10
7.816045640340516
 20
145.9941764073149
 30
0.0
  0
VERTEX
  5
284
330
27F
100
AcDbEntity
  8
0
 62
     7
100
AcDbVertex
100
AcDb2dVertex
 10
21.81576364034059
 20
145.9941764073149
 30
0.0
  0
SEQEND
  5
285
330
27F
100
AcDbEntity
  8
0
 62
     7
  0
ENDBLK
  5
27E
330
27B
100
AcDbEntity
  8
0
100
AcDbBlockEnd
  0
BLOCK
  5
288
330
286
100
AcDbEntity
  8
0
100
AcDbBlockBegin
  2
BLOCK_52
 70
     0
 10
0.0
 20
0.0
 30
0.0
  3
BLOCK_52
  1

  0
POLYLINE
  5
28A
330
286
100
AcDbEntity
  8
0
 62
     7
100
AcDb2dPolyline
 66
     1
 10
0.0
 20
0.0
 30
0.0
  0
VERTEX
  5
28B
330
28A
100
AcDbEntity
  8
0
 62
     7
100
AcDbVertex
100
AcDb2dVertex
 10
40.86576364034046
 20
145.9941764073149
 30
0.0
  0
VERTEX
  5
28C
330
28A
100
AcDbEntity
  8
0
 62
     7
100
AcDbVertex
100
AcDb2dVertex
 10
40.86576364034046
 20
131.9931884073145
 30
0.0
  0
VERTEX
  5
28D
330
28A
100
AcDbEntity
  8
0
 62
     7
100
AcDbVertex
100
AcDb2dVertex
 10
26.86604564034071
 20
131.9931884073145
 30
0.0
  0
VERTEX
  5
28E
330
28A
100
AcDbEntity
  8
0
 62
     7
100
AcDbVertex
100
AcDb2dVertex
 10
26.86604564034071
 20
145.9941764073149
 30
0.0
  0
VERTEX
  5
28F
330
28A
100
AcDbEntity
  8
0
 62
     7
100
AcDbVertex
100
AcDb2dVertex
 10
40.86576364034046
 20
145.9941764073149
 30
0.0
  0
SEQEND
  5
290
330
28A
100
AcDbEntity
  8
0
 62
     7
  0
ENDBLK
  5
289
330
286
100
AcDbEntity
  8
0
100
AcDbBlockEnd
  0
BLOCK
  5
293
330
291
100
AcDbEntity
  8
0
100
AcDbBlockBegin
  2
BLOCK_53
 70
     0
 10
0.0
 20
0.0
 30
0.0
  3
BLOCK_53
  1

  0
POLYLINE
  5
295
330
291
100
AcDbEntity
  8
0
 62
     7
100
AcDb2dPolyline
 66
     1
 10
0.0
 20
0.0
 30
0.0
  0
VERTEX
  5
296
330
295
100
AcDbEntity
  8
0
 62
     7
100
AcDbVertex
100
AcDb2dVertex
 10
59.91576364034065
 20
145.9941764073149
 30
0.0
  0
VERTEX
  5
297
330
295
100
AcDbEntity
  8
0
 62
     7
100
AcDbVertex
100
AcDb2dVertex
 10
59.91576364034065
 20
131.9931884073145
 30
0.0
  0
VERTEX
  5
298
330
295
100
AcDbEntity
  8
0
 62
     7
100
AcDbVertex
100
AcDb2dVertex
 10
45.91604564034058
 20
131.9931884073145
 30
0.0
  0
VERTEX
  5
299
330
295
100
AcDbEntity
  8
0
 62
     7
100
AcDbVertex
100
AcDb2dVertex
 10
45.91604564034058
 20
145.9941764073149
 30
0.0
  0
VERTEX
  5
29A
330
295
100
AcDbEntity
  8
0
 62
     7
100
AcDbVertex
100
AcDb2dVertex
 10
59.91576364034065
 20
145.9941764073149
 30
0.0
  0
SEQEND
  5
29B
330
295
100
AcDbEntity
  8
0
 62
     7
  0
ENDBLK
  5
294
330
291
100
AcDbEntity
  8
0
100
AcDbBlockEnd
  0
BLOCK
  5
29E
330
29C
100
AcDbEntity
  8
0
100
AcDbBlockBegin
  2
BLOCK_54
 70
     0
 10
0.0
 20
0.0
 30
0.0
  3
BLOCK_54
  1

  0
POLYLINE
  5
2A0
330
29C
100
AcDbEntity
  8
0
 62
     7
100
AcDb2dPolyline
 66
     1
 10
0.0
 20
0.0
 30
0.0
  0
VERTEX
  5
2A1
330
2A0
100
AcDbEntity
  8
0
 62
     7
100
AcDbVertex
100
AcDb2dVertex
 10
78.96576364034053
 20
145.9941764073149
 30
0.0
  0
VERTEX
  5
2A2
330
2A0
100
AcDbEntity
  8
0
 62
     7
100
AcDbVertex
100
AcDb2dVertex
 10
78.96576364034053
 20
131.9931884073145
 30
0.0
  0
VERTEX
  5
2A3
330
2A0
100
AcDbEntity
  8
0
 62
     7
100
AcDbVertex
100
AcDb2dVertex
 10
64.96579164034051
 20
131.9931884073145
 30
0.0
  0
VERTEX
  5
2A4
330
2A0
100
AcDbEntity
  8
0
 62
     7
100
AcDbVertex
100
AcDb2dVertex
 10
64.96579164034051
 20
145.9941764073149
 30
0.0
  0
VERTEX
  5
2A5
330
2A0
100
AcDbEntity
  8
0
 62
     7
100
AcDbVertex
100
AcDb2dVertex
 10
78.96576364034053
 20
145.9941764073149
 30
0.0
  0
SEQEND
  5
2A6
330
2A0
100
AcDbEntity
  8
0
 62
     7
  0
ENDBLK
  5
29F
330
29C
100
AcDbEntity
  8
0
100
AcDbBlockEnd
  0
BLOCK
  5
2A9
330
2A7
100
AcDbEntity
  8
0
100
AcDbBlockBegin
  2
BLOCK_55
 70
     0
 10
0.0
 20
0.0
 30
0.0
  3
BLOCK_55
  1

  0
POLYLINE
  5
2AB
330
2A7
100
AcDbEntity
  8
0
 62
     7
100
AcDb2dPolyline
 66
     1
 10
0.0
 20
0.0
 30
0.0
  0
VERTEX
  5
2AC
330
2AB
100
AcDbEntity
  8
0
 62
     7
100
AcDbVertex
100
AcDb2dVertex
 10
98.01576364034071
 20
145.9941764073149
 30
0.0
  0
VERTEX
  5
2AD
330
2AB
100
AcDbEntity
  8
0
 62
     7
100
AcDbVertex
100
AcDb2dVertex
 10
98.01576364034071
 20
131.9931884073145
 30
0.0
  0
VERTEX
  5
2AE
330
2AB
100
AcDbEntity
  8
0
 62
     7
100
AcDbVertex
100
AcDb2dVertex
 10
84.01579164034071
 20
131.9931884073145
 30
0.0
  0
VERTEX
  5
2AF
330
2AB
100
AcDbEntity
  8
0
 62
     7
100
AcDbVertex
100
AcDb2dVertex
 10
84.01579164034071
 20
145.9941764073149
 30
0.0
  0
VERTEX
  5
2B0
330
2AB
100
AcDbEntity
  8
0
 62
     7
100
AcDbVertex
100
AcDb2dVertex
 10
98.01576364034071
 20
145.9941764073149
 30
0.0
  0
SEQEND
  5
2B1
330
2AB
100
AcDbEntity
  8
0
 62
     7
  0
ENDBLK
  5
2AA
330
2A7
100
AcDbEntity
  8
0
100
AcDbBlockEnd
  0
BLOCK
  5
2B4
330
2B2
100
AcDbEntity
  8
0
100
AcDbBlockBegin
  2
BLOCK_56
 70
     0
 10
0.0
 20
0.0
 30
0.0
  3
BLOCK_56
  1

  0
POLYLINE
  5
2B6
330
2B2
100
AcDbEntity
  8
0
 62
     7
100
AcDb2dPolyline
 66
     1
 10
0.0
 20
0.0
 30
0.0
  0
VERTEX
  5
2B7
330
2B6
100
AcDbEntity
  8
0
 62
     7
100
AcDbVertex
100
AcDb2dVertex
 10
117.0657636403409
 20
145.9941764073149
 30
0.0
  0
VERTEX
  5
2B8
330
2B6
100
AcDbEntity
  8
0
 62
     7
100
AcDbVertex
100
AcDb2dVertex
 10
117.0657636403409
 20
131.9931884073145
 30
0.0
  0
VERTEX
  5
2B9
330
2B6
100
AcDbEntity
  8
0
 62
     7
100
AcDbVertex
100
AcDb2dVertex
 10
103.0657916403406
 20
131.9931884073145
 30
0.0
  0
VERTEX
  5
2BA
330
2B6
100
AcDbEntity
  8
0
 62
     7
100
AcDbVertex
100
AcDb2dVertex
 10
103.0657916403406
 20
145.9941764073149
 30
0.0
  0
VERTEX
  5
2BB
330
2B6
100
AcDbEntity
  8
0
 62
     7
100
AcDbVertex
100
AcDb2dVertex
 10
117.0657636403409
 20
145.9941764073149
 30
0.0
  0
SEQEND
  5
2BC
330
2B6
100
AcDbEntity
  8
0
 62
     7
  0
ENDBLK
  5
2B5
330
2B2
100
AcDbEntity
  8
0
100
AcDbBlockEnd
  0
BLOCK
  5
2BF
330
2BD
100
AcDbEntity
  8
0
100
AcDbBlockBegin
  2
BLOCK_57
 70
     0
 10
0.0
 20
0.0
 30
0.0
  3
BLOCK_57
  1

  0
POLYLINE
  5
2C1
330
2BD
100
AcDbEntity
  8
0
 62
     7
100
AcDb2dPolyline
 66
     1
 10
0.0
 20
0.0
 30
0.0
  0
VERTEX
  5
2C2
330
2C1
100
AcDbEntity
  8
0
 62
     7
100
AcDbVertex
100
AcDb2dVertex
 10
136.1157636403404
 20
145.9941764073149
 30
0.0
  0
VERTEX
  5
2C3
330
2C1
100
AcDbEntity
  8
0
 62
     7
100
AcDbVertex
100
AcDb2dVertex
 10
136.1157636403404
 20
131.9931884073145
 30
0.0
  0
VERTEX
  5
2C4
330
2C1
100
AcDbEntity
  8
0
 62
     7
100
AcDbVertex
100
AcDb2dVertex
 10
122.1157916403404
 20
131.9931884073145
 30
0.0
  0
VERTEX
  5
2C5
330
2C1
100
AcDbEntity
  8
0
 62
     7
100
AcDbVertex
100
AcDb2dVertex
 10
122.1157916403404
 20
145.9941764073149
 30
0.0
  0
VERTEX
  5
2C6
330
2C1
100
AcDbEntity
  8
0
 62
     7
100
AcDbVertex
100
AcDb2dVertex
 10
136.1157636403404
 20
145.9941764073149
 30
0.0
  0
SEQEND
  5
2C7
330
2C1
100
AcDbEntity
  8
0
 62
     7
  0
ENDBLK
  5
2C0
330
2BD
100
AcDbEntity
  8
0
100
AcDbBlockEnd
  0
BLOCK
  5
2CA
330
2C8
100
AcDbEntity
  8
0
100
AcDbBlockBegin
  2
BLOCK_58
 70
     0
 10
0.0
 20
0.0
 30
0.0
  3
BLOCK_58
  1

  0
POLYLINE
  5
2CC
330
2C8
100
AcDbEntity
  8
0
 62
     7
100
AcDb2dPolyline
 66
     1
 10
0.0
 20
0.0
 30
0.0
  0
VERTEX
  5
2CD
330
2CC
100
AcDbEntity
  8
0
 62
     7
100
AcDbVertex
100
AcDb2dVertex
 10
155.1657636403407
 20
145.9941764073149
 30
0.0
  0
VERTEX
  5
2CE
330
2CC
100
AcDbEntity
  8
0
 62
     7
100
AcDbVertex
100
AcDb2dVertex
 10
155.1657636403407
 20
131.9931884073145
 30
0.0
  0
VERTEX
  5
2CF
330
2CC
100
AcDbEntity
  8
0
 62
     7
100
AcDbVertex
100
AcDb2dVertex
 10
141.1657916403406
 20
131.9931884073145
 30
0.0
  0
VERTEX
  5
2D0
330
2CC
100
AcDbEntity
  8
0
 62
     7
100
AcDbVertex
100
AcDb2dVertex
 10
141.1657916403406
 20
145.9941764073149
 30
0.0
  0
VERTEX
  5
2D1
330
2CC
100
AcDbEntity
  8
0
 62
     7
100
AcDbVertex
100
AcDb2dVertex
 10
155.1657636403407
 20
145.9941764073149
 30
0.0
  0
SEQEND
  5
2D2
330
2CC
100
AcDbEntity
  8
0
 62
     7
  0
ENDBLK
  5
2CB
330
2C8
100
AcDbEntity
  8
0
100
AcDbBlockEnd
  0
BLOCK
  5
2D5
330
2D3
100
AcDbEntity
  8
0
100
AcDbBlockBegin
  2
BLOCK_59
 70
     0
 10
0.0
 20
0.0
 30
0.0
  3
BLOCK_59
  1

  0
POLYLINE
  5
2D7
330
2D3
100
AcDbEntity
  8
0
 62
     7
100
AcDb2dPolyline
 66
     1
 10
0.0
 20
0.0
 30
0.0
  0
VERTEX
  5
2D8
330
2D7
100
AcDbEntity
  8
0
 62
     7
100
AcDbVertex
100
AcDb2dVertex
 10
174.2155096403409
 20
145.9941764073149
 30
0.0
  0
VERTEX
  5
2D9
330
2D7
100
AcDbEntity
  8
0
 62
     7
100
AcDbVertex
100
AcDb2dVertex
 10
174.2155096403409
 20
131.9931884073145
 30
0.0
  0
VERTEX
  5
2DA
330
2D7
100
AcDbEntity
  8
0
 62
     7
100
AcDbVertex
100
AcDb2dVertex
 10
160.2155376403409
 20
131.9931884073145
 30
0.0
  0
VERTEX
  5
2DB
330
2D7
100
AcDbEntity
  8
0
 62
     7
100
AcDbVertex
100
AcDb2dVertex
 10
160.2155376403409
 20
145.9941764073149
 30
0.0
  0
VERTEX
  5
2DC
330
2D7
100
AcDbEntity
  8
0
 62
     7
100
AcDbVertex
100
AcDb2dVertex
 10
174.2155096403409
 20
145.9941764073149
 30
0.0
  0
SEQEND
  5
2DD
330
2D7
100
AcDbEntity
  8
0
 62
     7
  0
ENDBLK
  5
2D6
330
2D3
100
AcDbEntity
  8
0
100
AcDbBlockEnd
  0
BLOCK
  5
2E0
330
2DE
100
AcDbEntity
  8
0
100
AcDbBlockBegin
  2
BLOCK_60
 70
     0
 10
0.0
 20
0.0
 30
0.0
  3
BLOCK_60
  1

  0
POLYLINE
  5
2E2
330
2DE
100
AcDbEntity
  8
0
 62
     7
100
AcDb2dPolyline
 66
     1
 10
0.0
 20
0.0
 30
0.0
  0
VERTEX
  5
2E3
330
2E2
100
AcDbEntity
  8
0
 62
     7
100
AcDbVertex
100
AcDb2dVertex
 10
193.2655096403404
 20
145.9941764073149
 30
0.0
  0
VERTEX
  5
2E4
330
2E2
100
AcDbEntity
  8
0
 62
     7
100
AcDbVertex
100
AcDb2dVertex
 10
193.2655096403404
 20
131.9931884073145
 30
0.0
  0
VERTEX
  5
2E5
330
2E2
100
AcDbEntity
  8
0
 62
     7
100
AcDbVertex
100
AcDb2dVertex
 10
179.2655376403404
 20
131.9931884073145
 30
0.0
  0
VERTEX
  5
2E6
330
2E2
100
AcDbEntity
  8
0
 62
     7
100
AcDbVertex
100
AcDb2dVertex
 10
179.2655376403404
 20
145.9941764073149
 30
0.0
  0
VERTEX
  5
2E7
330
2E2
100
AcDbEntity
  8
0
 62
     7
100
AcDbVertex
100
AcDb2dVertex
 10
193.2655096403404
 20
145.9941764073149
 30
0.0
  0
SEQEND
  5
2E8
330
2E2
100
AcDbEntity
  8
0
 62
     7
  0
ENDBLK
  5
2E1
330
2DE
100
AcDbEntity
  8
0
100
AcDbBlockEnd
  0
BLOCK
  5
2EB
330
2E9
100
AcDbEntity
  8
0
100
AcDbBlockBegin
  2
BLOCK_61
 70
     0
 10
0.0
 20
0.0
 30
0.0
  3
BLOCK_61
  1

  0
POLYLINE
  5
2ED
330
2E9
100
AcDbEntity
  8
0
 62
     7
100
AcDb2dPolyline
 66
     1
 10
0.0
 20
0.0
 30
0.0
  0
VERTEX
  5
2EE
330
2ED
100
AcDbEntity
  8
0
 62
     7
100
AcDbVertex
100
AcDb2dVertex
 10
255.1795336403404
 20
145.9941764073149
 30
0.0
  0
VERTEX
  5
2EF
330
2ED
100
AcDbEntity
  8
0
 62
     7
100
AcDbVertex
100
AcDb2dVertex
 10
255.1795336403404
 20
131.9931884073145
 30
0.0
  0
VERTEX
  5
2F0
330
2ED
100
AcDbEntity
  8
0
 62
     7
100
AcDbVertex
100
AcDb2dVertex
 10
241.1785456403406
 20
131.9931884073145
 30
0.0
  0
VERTEX
  5
2F1
330
2ED
100
AcDbEntity
  8
0
 62
     7
100
AcDbVertex
100
AcDb2dVertex
 10
241.1785456403406
 20
145.9941764073149
 30
0.0
  0
VERTEX
  5
2F2
330
2ED
100
AcDbEntity
  8
0
 62
     7
100
AcDbVertex
100
AcDb2dVertex
 10
255.1795336403404
 20
145.9941764073149
 30
0.0
  0
SEQEND
  5
2F3
330
2ED
100
AcDbEntity
  8
0
 62
     7
  0
ENDBLK
  5
2EC
330
2E9
100
AcDbEntity
  8
0
100
AcDbBlockEnd
  0
BLOCK
  5
2F6
330
2F4
100
AcDbEntity
  8
0
100
AcDbBlockBegin
  2
BLOCK_62
 70
     0
 10
0.0
 20
0.0
 30
0.0
  3
BLOCK_62
  1

  0
POLYLINE
  5
2F8
330
2F4
100
AcDbEntity
  8
0
 62
     7
100
AcDb2dPolyline
 66
     1
 10
0.0
 20
0.0
 30
0.0
  0
VERTEX
  5
2F9
330
2F8
100
AcDbEntity
  8
0
 62
     7
100
AcDbVertex
100
AcDb2dVertex
 10
210.2215336403403
 20
141.2933984073146
 30
0.0
  0
VERTEX
  5
2FA
330
2F8
100
AcDbEntity
  8
0
 62
     7
100
AcDbVertex
100
AcDb2dVertex
 10
208.6965176403405
 20
141.2933984073146
 30
0.0
  0
VERTEX
  5
2FB
330
2F8
100
AcDbEntity
  8
0
 62
     7
100
AcDbVertex
100
AcDb2dVertex
 10
208.6965176403405
 20
144.5237704073143
 30
0.0
  0
VERTEX
  5
2FC
330
2F8
100
AcDbEntity
  8
0
 62
     7
100
AcDbVertex
100
AcDb2dVertex
 10
201.9464676403404
 20
144.5237704073143
 30
0.0
  0
VERTEX
  5
2FD
330
2F8
100
AcDbEntity
  8
0
 62
     7
100
AcDbVertex
100
AcDb2dVertex
 10
201.9464676403404
 20
141.2933984073146
 30
0.0
  0
VERTEX
  5
2FE
330
2F8
100
AcDbEntity
  8
0
 62
     7
100
AcDbVertex
100
AcDb2dVertex
 10
201.1214756403406
 20
141.2933984073146
 30
0.0
  0
VERTEX
  5
2FF
330
2F8
100
AcDbEntity
  8
0
 62
     7
100
AcDbVertex
100
AcDb2dVertex
 10
201.1214756403406
 20
138.4933024073145
 30
0.0
  0
VERTEX
  5
300
330
2F8
100
AcDbEntity
  8
0
 62
     7
100
AcDbVertex
100
AcDb2dVertex
 10
201.9464676403404
 20
138.4933024073145
 30
0.0
  0
VERTEX
  5
301
330
2F8
100
AcDbEntity
  8
0
 62
     7
100
AcDbVertex
100
AcDb2dVertex
 10
201.9464676403404
 20
132.2233124073144
 30
0.0
  0
VERTEX
  5
302
330
2F8
100
AcDbEntity
  8
0
 62
     7
100
AcDbVertex
100
AcDb2dVertex
 10
203.6726516403409
 20
132.2233124073144
 30
0.0
  0
VERTEX
  5
303
330
2F8
100
AcDbEntity
  8
0
 62
     7
100
AcDbVertex
100
AcDb2dVertex
 10
203.6726516403409
 20
131.0244324073145
 30
0.0
  0
VERTEX
  5
304
330
2F8
100
AcDbEntity
  8
0
 62
     7
100
AcDbVertex
100
AcDb2dVertex
 10
206.9695716403408
 20
131.0244324073145
 30
0.0
  0
VERTEX
  5
305
330
2F8
100
AcDbEntity
  8
0
 62
     7
100
AcDbVertex
100
AcDb2dVertex
 10
206.9695716403408
 20
132.2233124073144
 30
0.0
  0
VERTEX
  5
306
330
2F8
100
AcDbEntity
  8
0
 62
     7
100
AcDbVertex
100
AcDb2dVertex
 10
208.6965176403405
 20
132.2233124073144
 30
0.0
  0
VERTEX
  5
307
330
2F8
100
AcDbEntity
  8
0
 62
     7
100
AcDbVertex
100
AcDb2dVertex
 10
208.6965176403405
 20
136.6934584073149
 30
0.0
  0
VERTEX
  5
308
330
2F8
100
AcDbEntity
  8
0
 62
     7
100
AcDbVertex
100
AcDb2dVertex
 10
210.2215336403403
 20
136.6934584073149
 30
0.0
  0
VERTEX
  5
309
330
2F8
100
AcDbEntity
  8
0
 62
     7
100
AcDbVertex
100
AcDb2dVertex
 10
210.2215336403403
 20
131.9931884073145
 30
0.0
  0
VERTEX
  5
30A
330
2F8
100
AcDbEntity
  8
0
 62
     7
100
AcDbVertex
100
AcDb2dVertex
 10
224.2215056403404
 20
131.9931884073145
 30
0.0
  0
VERTEX
  5
30B
330
2F8
100
AcDbEntity
  8
0
 62
     7
100
AcDbVertex
100
AcDb2dVertex
 10
224.2215056403404
 20
136.6934584073149
 30
0.0
  0
VERTEX
  5
30C
330
2F8
100
AcDbEntity
  8
0
 62
     7
100
AcDbVertex
100
AcDb2dVertex
 10
225.7465216403408
 20
136.6934584073149
 30
0.0
  0
VERTEX
  5
30D
330
2F8
100
AcDbEntity
  8
0
 62
     7
100
AcDbVertex
100
AcDb2dVertex
 10
225.7465216403408
 20
132.2233124073144
 30
0.0
  0
VERTEX
  5
30E
330
2F8
100
AcDbEntity
  8
0
 62
     7
100
AcDbVertex
100
AcDb2dVertex
 10
227.4704196403406
 20
132.2233124073144
 30
0.0
  0
VERTEX
  5
30F
330
2F8
100
AcDbEntity
  8
0
 62
     7
100
AcDbVertex
100
AcDb2dVertex
 10
227.4704196403406
 20
131.0244324073145
 30
0.0
  0
VERTEX
  5
310
330
2F8
100
AcDbEntity
  8
0
 62
     7
100
AcDbVertex
100
AcDb2dVertex
 10
230.7714036403408
 20
131.0244324073145
 30
0.0
  0
VERTEX
  5
311
330
2F8
100
AcDbEntity
  8
0
 62
     7
100
AcDbVertex
100
AcDb2dVertex
 10
230.7714036403408
 20
132.2233124073144
 30
0.0
  0
VERTEX
  5
312
330
2F8
100
AcDbEntity
  8
0
 62
     7
100
AcDbVertex
100
AcDb2dVertex
 10
232.496571640341
 20
132.2233124073144
 30
0.0
  0
VERTEX
  5
313
330
2F8
100
AcDbEntity
  8
0
 62
     7
100
AcDbVertex
100
AcDb2dVertex
 10
232.496571640341
 20
138.4933024073145
 30
0.0
  0
VERTEX
  5
314
330
2F8
100
AcDbEntity
  8
0
 62
     7
100
AcDbVertex
100
AcDb2dVertex
 10
233.3225796403405
 20
138.4933024073145
 30
0.0
  0
VERTEX
  5
315
330
2F8
100
AcDbEntity
  8
0
 62
     7
100
AcDbVertex
100
AcDb2dVertex
 10
233.3225796403405
 20
141.2933984073146
 30
0.0
  0
VERTEX
  5
316
330
2F8
100
AcDbEntity
  8
0
 62
     7
100
AcDbVertex
100
AcDb2dVertex
 10
232.496571640341
 20
141.2933984073146
 30
0.0
  0
VERTEX
  5
317
330
2F8
100
AcDbEntity
  8
0
 62
     7
100
AcDbVertex
100
AcDb2dVertex
 10
232.496571640341
 20
144.5237704073143
 30
0.0
  0
VERTEX
  5
318
330
2F8
100
AcDbEntity
  8
0
 62
     7
100
AcDbVertex
100
AcDb2dVertex
 10
225.7465216403408
 20
144.5237704073143
 30
0.0
  0
VERTEX
  5
319
330
2F8
100
AcDbEntity
  8
0
 62
     7
100
AcDbVertex
100
AcDb2dVertex
 10
225.7465216403408
 20
141.2933984073146
 30
0.0
  0
VERTEX
  5
31A
330
2F8
100
AcDbEntity
  8
0
 62
     7
100
AcDbVertex
100
AcDb2dVertex
 10
224.2215056403404
 20
141.2933984073146
 30
0.0
  0
VERTEX
  5
31B
330
2F8
100
AcDbEntity
  8
0
 62
     7
100
AcDbVertex
100
AcDb2dVertex
 10
224.2215056403404
 20
145.9941764073149
 30
0.0
  0
VERTEX
  5
31C
330
2F8
100
AcDbEntity
  8
0
 62
     7
100
AcDbVertex
100
AcDb2dVertex
 10
210.2215336403403
 20
145.9941764073149
 30
0.0
  0
VERTEX
  5
31D
330
2F8
100
AcDbEntity
  8
0
 62
     7
100
AcDbVertex
100
AcDb2dVertex
 10
210.2215336403403
 20
141.2933984073146
 30
0.0
  0
SEQEND
  5
31E
330
2F8
100
AcDbEntity
  8
0
 62
     7
  0
ENDBLK
  5
2F7
330
2F4
100
AcDbEntity
  8
0
100
AcDbBlockEnd
  0
BLOCK
  5
321
330
31F
100
AcDbEntity
  8
0
100
AcDbBlockBegin
  2
BLOCK_63
 70
     0
 10
0.0
 20
0.0
 30
0.0
  3
BLOCK_63
  1

  0
POLYLINE
  5
323
330
31F
100
AcDbEntity
  8
0
 62
     7
100
AcDb2dPolyline
 66
     1
 10
0.0
 20
0.0
 30
0.0
  0
VERTEX
  5
324
330
323
100
AcDbEntity
  8
0
 62
     7
100
AcDbVertex
100
AcDb2dVertex
 10
12.29076364034049
 20
126.9441764073147
 30
0.0
  0
VERTEX
  5
325
330
323
100
AcDbEntity
  8
0
 62
     7
100
AcDbVertex
100
AcDb2dVertex
 10
12.29076364034049
 20
112.9431884073143
 30
0.0
  0
VERTEX
  5
326
330
323
100
AcDbEntity
  8
0
 62
     7
100
AcDbVertex
100
AcDb2dVertex
 10
-1.708954359659259
 20
112.9431884073143
 30
0.0
  0
VERTEX
  5
327
330
323
100
AcDbEntity
  8
0
 62
     7
100
AcDbVertex
100
AcDb2dVertex
 10
-1.708954359659259
 20
126.9441764073147
 30
0.0
  0
VERTEX
  5
328
330
323
100
AcDbEntity
  8
0
 62
     7
100
AcDbVertex
100
AcDb2dVertex
 10
12.29076364034049
 20
126.9441764073147
 30
0.0
  0
SEQEND
  5
329
330
323
100
AcDbEntity
  8
0
 62
     7
  0
ENDBLK
  5
322
330
31F
100
AcDbEntity
  8
0
100
AcDbBlockEnd
  0
BLOCK
  5
32C
330
32A
100
AcDbEntity
  8
0
100
AcDbBlockBegin
  2
BLOCK_64
 70
     0
 10
0.0
 20
0.0
 30
0.0
  3
BLOCK_64
  1

  0
POLYLINE
  5
32E
330
32A
100
AcDbEntity
  8
0
 62
     7
100
AcDb2dPolyline
 66
     1
 10
0.0
 20
0.0
 30
0.0
  0
VERTEX
  5
32F
330
32E
100
AcDbEntity
  8
0
 62
     7
100
AcDbVertex
100
AcDb2dVertex
 10
31.34076364034069
 20
126.9441764073147
 30
0.0
  0
VERTEX
  5
330
330
32E
100
AcDbEntity
  8
0
 62
     7
100
AcDbVertex
100
AcDb2dVertex
 10
31.34076364034069
 20
112.9431884073143
 30
0.0
  0
VERTEX
  5
331
330
32E
100
AcDbEntity
  8
0
 62
     7
100
AcDbVertex
100
AcDb2dVertex
 10
17.34104564034061
 20
112.9431884073143
 30
0.0
  0
VERTEX
  5
332
330
32E
100
AcDbEntity
  8
0
 62
     7
100
AcDbVertex
100
AcDb2dVertex
 10
17.34104564034061
 20
126.9441764073147
 30
0.0
  0
VERTEX
  5
333
330
32E
100
AcDbEntity
  8
0
 62
     7
100
AcDbVertex
100
AcDb2dVertex
 10
31.34076364034069
 20
126.9441764073147
 30
0.0
  0
SEQEND
  5
334
330
32E
100
AcDbEntity
  8
0
 62
     7
  0
ENDBLK
  5
32D
330
32A
100
AcDbEntity
  8
0
100
AcDbBlockEnd
  0
BLOCK
  5
337
330
335
100
AcDbEntity
  8
0
100
AcDbBlockBegin
  2
BLOCK_65
 70
     0
 10
0.0
 20
0.0
 30
0.0
  3
BLOCK_65
  1

  0
POLYLINE
  5
339
330
335
100
AcDbEntity
  8
0
 62
     7
100
AcDb2dPolyline
 66
     1
 10
0.0
 20
0.0
 30
0.0
  0
VERTEX
  5
33A
330
339
100
AcDbEntity
  8
0
 62
     7
100
AcDbVertex
100
AcDb2dVertex
 10
50.39076364034056
 20
126.9441764073147
 30
0.0
  0
VERTEX
  5
33B
330
339
100
AcDbEntity
  8
0
 62
     7
100
AcDbVertex
100
AcDb2dVertex
 10
50.39076364034056
 20
112.9431884073143
 30
0.0
  0
VERTEX
  5
33C
330
339
100
AcDbEntity
  8
0
 62
     7
100
AcDbVertex
100
AcDb2dVertex
 10
36.39104564034048
 20
112.9431884073143
 30
0.0
  0
VERTEX
  5
33D
330
339
100
AcDbEntity
  8
0
 62
     7
100
AcDbVertex
100
AcDb2dVertex
 10
36.39104564034048
 20
126.9441764073147
 30
0.0
  0
VERTEX
  5
33E
330
339
100
AcDbEntity
  8
0
 62
     7
100
AcDbVertex
100
AcDb2dVertex
 10
50.39076364034056
 20
126.9441764073147
 30
0.0
  0
SEQEND
  5
33F
330
339
100
AcDbEntity
  8
0
 62
     7
  0
ENDBLK
  5
338
330
335
100
AcDbEntity
  8
0
100
AcDbBlockEnd
  0
BLOCK
  5
342
330
340
100
AcDbEntity
  8
0
100
AcDbBlockBegin
  2
BLOCK_66
 70
     0
 10
0.0
 20
0.0
 30
0.0
  3
BLOCK_66
  1

  0
POLYLINE
  5
344
330
340
100
AcDbEntity
  8
0
 62
     7
100
AcDb2dPolyline
 66
     1
 10
0.0
 20
0.0
 30
0.0
  0
VERTEX
  5
345
330
344
100
AcDbEntity
  8
0
 62
     7
100
AcDbVertex
100
AcDb2dVertex
 10
69.44076364034075
 20
126.9441764073147
 30
0.0
  0
VERTEX
  5
346
330
344
100
AcDbEntity
  8
0
 62
     7
100
AcDbVertex
100
AcDb2dVertex
 10
69.44076364034075
 20
112.9431884073143
 30
0.0
  0
VERTEX
  5
347
330
344
100
AcDbEntity
  8
0
 62
     7
100
AcDbVertex
100
AcDb2dVertex
 10
55.44079164034073
 20
112.9431884073143
 30
0.0
  0
VERTEX
  5
348
330
344
100
AcDbEntity
  8
0
 62
     7
100
AcDbVertex
100
AcDb2dVertex
 10
55.44079164034073
 20
126.9441764073147
 30
0.0
  0
VERTEX
  5
349
330
344
100
AcDbEntity
  8
0
 62
     7
100
AcDbVertex
100
AcDb2dVertex
 10
69.44076364034075
 20
126.9441764073147
 30
0.0
  0
SEQEND
  5
34A
330
344
100
AcDbEntity
  8
0
 62
     7
  0
ENDBLK
  5
343
330
340
100
AcDbEntity
  8
0
100
AcDbBlockEnd
  0
BLOCK
  5
34D
330
34B
100
AcDbEntity
  8
0
100
AcDbBlockBegin
  2
BLOCK_67
 70
     0
 10
0.0
 20
0.0
 30
0.0
  3
BLOCK_67
  1

  0
POLYLINE
  5
34F
330
34B
100
AcDbEntity
  8
0
 62
     7
100
AcDb2dPolyline
 66
     1
 10
0.0
 20
0.0
 30
0.0
  0
VERTEX
  5
350
330
34F
100
AcDbEntity
  8
0
 62
     7
100
AcDbVertex
100
AcDb2dVertex
 10
88.49076364034062
 20
126.9441764073147
 30
0.0
  0
VERTEX
  5
351
330
34F
100
AcDbEntity
  8
0
 62
     7
100
AcDbVertex
100
AcDb2dVertex
 10
88.49076364034062
 20
112.9431884073143
 30
0.0
  0
VERTEX
  5
352
330
34F
100
AcDbEntity
  8
0
 62
     7
100
AcDbVertex
100
AcDb2dVertex
 10
74.4907916403406
 20
112.9431884073143
 30
0.0
  0
VERTEX
  5
353
330
34F
100
AcDbEntity
  8
0
 62
     7
100
AcDbVertex
100
AcDb2dVertex
 10
74.4907916403406
 20
126.9441764073147
 30
0.0
  0
VERTEX
  5
354
330
34F
100
AcDbEntity
  8
0
 62
     7
100
AcDbVertex
100
AcDb2dVertex
 10
88.49076364034062
 20
126.9441764073147
 30
0.0
  0
SEQEND
  5
355
330
34F
100
AcDbEntity
  8
0
 62
     7
  0
ENDBLK
  5
34E
330
34B
100
AcDbEntity
  8
0
100
AcDbBlockEnd
  0
BLOCK
  5
358
330
356
100
AcDbEntity
  8
0
100
AcDbBlockBegin
  2
BLOCK_68
 70
     0
 10
0.0
 20
0.0
 30
0.0
  3
BLOCK_68
  1

  0
POLYLINE
  5
35A
330
356
100
AcDbEntity
  8
0
 62
     7
100
AcDb2dPolyline
 66
     1
 10
0.0
 20
0.0
 30
0.0
  0
VERTEX
  5
35B
330
35A
100
AcDbEntity
  8
0
 62
     7
100
AcDbVertex
100
AcDb2dVertex
 10
107.5407636403408
 20
126.9441764073147
 30
0.0
  0
VERTEX
  5
35C
330
35A
100
AcDbEntity
  8
0
 62
     7
100
AcDbVertex
100
AcDb2dVertex
 10
107.5407636403408
 20
112.9431884073143
 30
0.0
  0
VERTEX
  5
35D
330
35A
100
AcDbEntity
  8
0
 62
     7
100
AcDbVertex
100
AcDb2dVertex
 10
93.54079164034047
 20
112.9431884073143
 30
0.0
  0
VERTEX
  5
35E
330
35A
100
AcDbEntity
  8
0
 62
     7
100
AcDbVertex
100
AcDb2dVertex
 10
93.54079164034047
 20
126.9441764073147
 30
0.0
  0
VERTEX
  5
35F
330
35A
100
AcDbEntity
  8
0
 62
     7
100
AcDbVertex
100
AcDb2dVertex
 10
107.5407636403408
 20
126.9441764073147
 30
0.0
  0
SEQEND
  5
360
330
35A
100
AcDbEntity
  8
0
 62
     7
  0
ENDBLK
  5
359
330
356
100
AcDbEntity
  8
0
100
AcDbBlockEnd
  0
BLOCK
  5
363
330
361
100
AcDbEntity
  8
0
100
AcDbBlockBegin
  2
BLOCK_69
 70
     0
 10
0.0
 20
0.0
 30
0.0
  3
BLOCK_69
  1

  0
POLYLINE
  5
365
330
361
100
AcDbEntity
  8
0
 62
     7
100
AcDb2dPolyline
 66
     1
 10
0.0
 20
0.0
 30
0.0
  0
VERTEX
  5
366
330
365
100
AcDbEntity
  8
0
 62
     7
100
AcDbVertex
100
AcDb2dVertex
 10
126.5907636403404
 20
126.9441764073147
 30
0.0
  0
VERTEX
  5
367
330
365
100
AcDbEntity
  8
0
 62
     7
100
AcDbVertex
100
AcDb2dVertex
 10
126.5907636403404
 20
112.9431884073143
 30
0.0
  0
VERTEX
  5
368
330
365
100
AcDbEntity
  8
0
 62
     7
100
AcDbVertex
100
AcDb2dVertex
 10
112.5907916403403
 20
112.9431884073143
 30
0.0
  0
VERTEX
  5
369
330
365
100
AcDbEntity
  8
0
 62
     7
100
AcDbVertex
100
AcDb2dVertex
 10
112.5907916403403
 20
126.9441764073147
 30
0.0
  0
VERTEX
  5
36A
330
365
100
AcDbEntity
  8
0
 62
     7
100
AcDbVertex
100
AcDb2dVertex
 10
126.5907636403404
 20
126.9441764073147
 30
0.0
  0
SEQEND
  5
36B
330
365
100
AcDbEntity
  8
0
 62
     7
  0
ENDBLK
  5
364
330
361
100
AcDbEntity
  8
0
100
AcDbBlockEnd
  0
BLOCK
  5
36E
330
36C
100
AcDbEntity
  8
0
100
AcDbBlockBegin
  2
BLOCK_70
 70
     0
 10
0.0
 20
0.0
 30
0.0
  3
BLOCK_70
  1

  0
POLYLINE
  5
370
330
36C
100
AcDbEntity
  8
0
 62
     7
100
AcDb2dPolyline
 66
     1
 10
0.0
 20
0.0
 30
0.0
  0
VERTEX
  5
371
330
370
100
AcDbEntity
  8
0
 62
     7
100
AcDbVertex
100
AcDb2dVertex
 10
145.6407636403405
 20
126.9441764073147
 30
0.0
  0
VERTEX
  5
372
330
370
100
AcDbEntity
  8
0
 62
     7
100
AcDbVertex
100
AcDb2dVertex
 10
145.6407636403405
 20
112.9431884073143
 30
0.0
  0
VERTEX
  5
373
330
370
100
AcDbEntity
  8
0
 62
     7
100
AcDbVertex
100
AcDb2dVertex
 10
131.6407916403405
 20
112.9431884073143
 30
0.0
  0
VERTEX
  5
374
330
370
100
AcDbEntity
  8
0
 62
     7
100
AcDbVertex
100
AcDb2dVertex
 10
131.6407916403405
 20
126.9441764073147
 30
0.0
  0
VERTEX
  5
375
330
370
100
AcDbEntity
  8
0
 62
     7
100
AcDbVertex
100
AcDb2dVertex
 10
145.6407636403405
 20
126.9441764073147
 30
0.0
  0
SEQEND
  5
376
330
370
100
AcDbEntity
  8
0
 62
     7
  0
ENDBLK
  5
36F
330
36C
100
AcDbEntity
  8
0
100
AcDbBlockEnd
  0
BLOCK
  5
379
330
377
100
AcDbEntity
  8
0
100
AcDbBlockBegin
  2
BLOCK_71
 70
     0
 10
0.0
 20
0.0
 30
0.0
  3
BLOCK_71
  1

  0
POLYLINE
  5
37B
330
377
100
AcDbEntity
  8
0
 62
     7
100
AcDb2dPolyline
 66
     1
 10
0.0
 20
0.0
 30
0.0
  0
VERTEX
  5
37C
330
37B
100
AcDbEntity
  8
0
 62
     7
100
AcDbVertex
100
AcDb2dVertex
 10
164.6905096403408
 20
126.9441764073147
 30
0.0
  0
VERTEX
  5
37D
330
37B
100
AcDbEntity
  8
0
 62
     7
100
AcDbVertex
100
AcDb2dVertex
 10
164.6905096403408
 20
112.9431884073143
 30
0.0
  0
VERTEX
  5
37E
330
37B
100
AcDbEntity
  8
0
 62
     7
100
AcDbVertex
100
AcDb2dVertex
 10
150.6905376403408
 20
112.9431884073143
 30
0.0
  0
VERTEX
  5
37F
330
37B
100
AcDbEntity
  8
0
 62
     7
100
AcDbVertex
100
AcDb2dVertex
 10
150.6905376403408
 20
126.9441764073147
 30
0.0
  0
VERTEX
  5
380
330
37B
100
AcDbEntity
  8
0
 62
     7
100
AcDbVertex
100
AcDb2dVertex
 10
164.6905096403408
 20
126.9441764073147
 30
0.0
  0
SEQEND
  5
381
330
37B
100
AcDbEntity
  8
0
 62
     7
  0
ENDBLK
  5
37A
330
377
100
AcDbEntity
  8
0
100
AcDbBlockEnd
  0
BLOCK
  5
384
330
382
100
AcDbEntity
  8
0
100
AcDbBlockBegin
  2
BLOCK_72
 70
     0
 10
0.0
 20
0.0
 30
0.0
  3
BLOCK_72
  1

  0
POLYLINE
  5
386
330
382
100
AcDbEntity
  8
0
 62
     7
100
AcDb2dPolyline
 66
     1
 10
0.0
 20
0.0
 30
0.0
  0
VERTEX
  5
387
330
386
100
AcDbEntity
  8
0
 62
     7
100
AcDbVertex
100
AcDb2dVertex
 10
183.7405096403403
 20
126.9441764073147
 30
0.0
  0
VERTEX
  5
388
330
386
100
AcDbEntity
  8
0
 62
     7
100
AcDbVertex
100
AcDb2dVertex
 10
183.7405096403403
 20
112.9431884073143
 30
0.0
  0
VERTEX
  5
389
330
386
100
AcDbEntity
  8
0
 62
     7
100
AcDbVertex
100
AcDb2dVertex
 10
169.7405376403403
 20
112.9431884073143
 30
0.0
  0
VERTEX
  5
38A
330
386
100
AcDbEntity
  8
0
 62
     7
100
AcDbVertex
100
AcDb2dVertex
 10
169.7405376403403
 20
126.9441764073147
 30
0.0
  0
VERTEX
  5
38B
330
386
100
AcDbEntity
  8
0
 62
     7
100
AcDbVertex
100
AcDb2dVertex
 10
183.7405096403403
 20
126.9441764073147
 30
0.0
  0
SEQEND
  5
38C
330
386
100
AcDbEntity
  8
0
 62
     7
  0
ENDBLK
  5
385
330
382
100
AcDbEntity
  8
0
100
AcDbBlockEnd
  0
BLOCK
  5
38F
330
38D
100
AcDbEntity
  8
0
100
AcDbBlockBegin
  2
BLOCK_73
 70
     0
 10
0.0
 20
0.0
 30
0.0
  3
BLOCK_73
  1

  0
POLYLINE
  5
391
330
38D
100
AcDbEntity
  8
0
 62
     7
100
AcDb2dPolyline
 66
     1
 10
0.0
 20
0.0
 30
0.0
  0
VERTEX
  5
392
330
391
100
AcDbEntity
  8
0
 62
     7
100
AcDbVertex
100
AcDb2dVertex
 10
209.9345136403404
 20
126.9441764073147
 30
0.0
  0
VERTEX
  5
393
330
391
100
AcDbEntity
  8
0
 62
     7
100
AcDbVertex
100
AcDb2dVertex
 10
209.9345136403404
 20
112.9431884073143
 30
0.0
  0
VERTEX
  5
394
330
391
100
AcDbEntity
  8
0
 62
     7
100
AcDbVertex
100
AcDb2dVertex
 10
195.9345416403404
 20
112.9431884073143
 30
0.0
  0
VERTEX
  5
395
330
391
100
AcDbEntity
  8
0
 62
     7
100
AcDbVertex
100
AcDb2dVertex
 10
195.9345416403404
 20
126.9441764073147
 30
0.0
  0
VERTEX
  5
396
330
391
100
AcDbEntity
  8
0
 62
     7
100
AcDbVertex
100
AcDb2dVertex
 10
209.9345136403404
 20
126.9441764073147
 30
0.0
  0
SEQEND
  5
397
330
391
100
AcDbEntity
  8
0
 62
     7
  0
ENDBLK
  5
390
330
38D
100
AcDbEntity
  8
0
100
AcDbBlockEnd
  0
BLOCK
  5
39A
330
398
100
AcDbEntity
  8
0
100
AcDbBlockBegin
  2
BLOCK_74
 70
     0
 10
0.0
 20
0.0
 30
0.0
  3
BLOCK_74
  1

  0
POLYLINE
  5
39C
330
398
100
AcDbEntity
  8
0
 62
     7
100
AcDb2dPolyline
 66
     1
 10
0.0
 20
0.0
 30
0.0
  0
VERTEX
  5
39D
330
39C
100
AcDbEntity
  8
0
 62
     7
100
AcDbVertex
100
AcDb2dVertex
 10
236.1295336403408
 20
126.9441764073147
 30
0.0
  0
VERTEX
  5
39E
330
39C
100
AcDbEntity
  8
0
 62
     7
100
AcDbVertex
100
AcDb2dVertex
 10
236.1295336403408
 20
112.9431884073143
 30
0.0
  0
VERTEX
  5
39F
330
39C
100
AcDbEntity
  8
0
 62
     7
100
AcDbVertex
100
AcDb2dVertex
 10
222.1285456403404
 20
112.9431884073143
 30
0.0
  0
VERTEX
  5
3A0
330
39C
100
AcDbEntity
  8
0
 62
     7
100
AcDbVertex
100
AcDb2dVertex
 10
222.1285456403404
 20
126.9441764073147
 30
0.0
  0
VERTEX
  5
3A1
330
39C
100
AcDbEntity
  8
0
 62
     7
100
AcDbVertex
100
AcDb2dVertex
 10
236.1295336403408
 20
126.9441764073147
 30
0.0
  0
SEQEND
  5
3A2
330
39C
100
AcDbEntity
  8
0
 62
     7
  0
ENDBLK
  5
39B
330
398
100
AcDbEntity
  8
0
100
AcDbBlockEnd
  0
BLOCK
  5
3A5
330
3A3
100
AcDbEntity
  8
0
100
AcDbBlockBegin
  2
BLOCK_75
 70
     0
 10
0.0
 20
0.0
 30
0.0
  3
BLOCK_75
  1

  0
POLYLINE
  5
3A7
330
3A3
100
AcDbEntity
  8
0
 62
     7
100
AcDb2dPolyline
 66
     1
 10
0.0
 20
0.0
 30
0.0
  0
VERTEX
  5
3A8
330
3A7
100
AcDbEntity
  8
0
 62
     7
100
AcDbVertex
100
AcDb2dVertex
 10
255.1795336403404
 20
126.9441764073147
 30
0.0
  0
VERTEX
  5
3A9
330
3A7
100
AcDbEntity
  8
0
 62
     7
100
AcDbVertex
100
AcDb2dVertex
 10
255.1795336403404
 20
112.9431884073143
 30
0.0
  0
VERTEX
  5
3AA
330
3A7
100
AcDbEntity
  8
0
 62
     7
100
AcDbVertex
100
AcDb2dVertex
 10
241.1785456403406
 20
112.9431884073143
 30
0.0
  0
VERTEX
  5
3AB
330
3A7
100
AcDbEntity
  8
0
 62
     7
100
AcDbVertex
100
AcDb2dVertex
 10
241.1785456403406
 20
126.9441764073147
 30
0.0
  0
VERTEX
  5
3AC
330
3A7
100
AcDbEntity
  8
0
 62
     7
100
AcDbVertex
100
AcDb2dVertex
 10
255.1795336403404
 20
126.9441764073147
 30
0.0
  0
SEQEND
  5
3AD
330
3A7
100
AcDbEntity
  8
0
 62
     7
  0
ENDBLK
  5
3A6
330
3A3
100
AcDbEntity
  8
0
100
AcDbBlockEnd
  0
BLOCK
  5
3B0
330
3AE
100
AcDbEntity
  8
0
100
AcDbBlockBegin
  2
BLOCK_76
 70
     0
 10
0.0
 20
0.0
 30
0.0
  3
BLOCK_76
  1

  0
POLYLINE
  5
3B2
330
3AE
100
AcDbEntity
  8
0
 62
     7
100
AcDb2dPolyline
 66
     1
 10
0.0
 20
0.0
 30
0.0
  0
VERTEX
  5
3B3
330
3B2
100
AcDbEntity
  8
0
 62
     7
100
AcDbVertex
100
AcDb2dVertex
 10
-32.66495035965947
 20
122.2436524073143
 30
0.0
  0
VERTEX
  5
3B4
330
3B2
100
AcDbEntity
  8
0
 62
     7
100
AcDbVertex
100
AcDb2dVertex
 10
-34.19047435965948
 20
122.2436524073143
 30
0.0
  0
VERTEX
  5
3B5
330
3B2
100
AcDbEntity
  8
0
 62
     7
100
AcDbVertex
100
AcDb2dVertex
 10
-34.19047435965948
 20
125.4737704073148
 30
0.0
  0
VERTEX
  5
3B6
330
3B2
100
AcDbEntity
  8
0
 62
     7
100
AcDbVertex
100
AcDb2dVertex
 10
-40.94001635965945
 20
125.4737704073148
 30
0.0
  0
VERTEX
  5
3B7
330
3B2
100
AcDbEntity
  8
0
 62
     7
100
AcDbVertex
100
AcDb2dVertex
 10
-40.94001635965945
 20
122.2436524073143
 30
0.0
  0
VERTEX
  5
3B8
330
3B2
100
AcDbEntity
  8
0
 62
     7
100
AcDbVertex
100
AcDb2dVertex
 10
-41.76551635965943
 20
122.2436524073143
 30
0.0
  0
VERTEX
  5
3B9
330
3B2
100
AcDbEntity
  8
0
 62
     7
100
AcDbVertex
100
AcDb2dVertex
 10
-41.76551635965943
 20
119.4435564073149
 30
0.0
  0
VERTEX
  5
3BA
330
3B2
100
AcDbEntity
  8
0
 62
     7
100
AcDbVertex
100
AcDb2dVertex
 10
-40.94001635965945
 20
119.4435564073149
 30
0.0
  0
VERTEX
  5
3BB
330
3B2
100
AcDbEntity
  8
0
 62
     7
100
AcDbVertex
100
AcDb2dVertex
 10
-40.94001635965945
 20
113.1745824073146
 30
0.0
  0
VERTEX
  5
3BC
330
3B2
100
AcDbEntity
  8
0
 62
     7
100
AcDbVertex
100
AcDb2dVertex
 10
-39.21484835965929
 20
113.1745824073146
 30
0.0
  0
VERTEX
  5
3BD
330
3B2
100
AcDbEntity
  8
0
 62
     7
100
AcDbVertex
100
AcDb2dVertex
 10
-39.21484835965929
 20
111.9744324073143
 30
0.0
  0
VERTEX
  5
3BE
330
3B2
100
AcDbEntity
  8
0
 62
     7
100
AcDbVertex
100
AcDb2dVertex
 10
-35.91437235965931
 20
111.9744324073143
 30
0.0
  0
VERTEX
  5
3BF
330
3B2
100
AcDbEntity
  8
0
 62
     7
100
AcDbVertex
100
AcDb2dVertex
 10
-35.91437235965931
 20
113.1745824073146
 30
0.0
  0
VERTEX
  5
3C0
330
3B2
100
AcDbEntity
  8
0
 62
     7
100
AcDbVertex
100
AcDb2dVertex
 10
-34.19047435965948
 20
113.1745824073146
 30
0.0
  0
VERTEX
  5
3C1
330
3B2
100
AcDbEntity
  8
0
 62
     7
100
AcDbVertex
100
AcDb2dVertex
 10
-34.19047435965948
 20
117.6449824073143
 30
0.0
  0
VERTEX
  5
3C2
330
3B2
100
AcDbEntity
  8
0
 62
     7
100
AcDbVertex
100
AcDb2dVertex
 10
-32.66495035965947
 20
117.6449824073143
 30
0.0
  0
VERTEX
  5
3C3
330
3B2
100
AcDbEntity
  8
0
 62
     7
100
AcDbVertex
100
AcDb2dVertex
 10
-32.66495035965947
 20
112.9431884073143
 30
0.0
  0
VERTEX
  5
3C4
330
3B2
100
AcDbEntity
  8
0
 62
     7
100
AcDbVertex
100
AcDb2dVertex
 10
-18.66548635965934
 20
112.9431884073143
 30
0.0
  0
VERTEX
  5
3C5
330
3B2
100
AcDbEntity
  8
0
 62
     7
100
AcDbVertex
100
AcDb2dVertex
 10
-18.66548635965934
 20
117.6449824073143
 30
0.0
  0
VERTEX
  5
3C6
330
3B2
100
AcDbEntity
  8
0
 62
     7
100
AcDbVertex
100
AcDb2dVertex
 10
-17.13996235965933
 20
117.6449824073143
 30
0.0
  0
VERTEX
  5
3C7
330
3B2
100
AcDbEntity
  8
0
 62
     7
100
AcDbVertex
100
AcDb2dVertex
 10
-17.13996235965933
 20
113.1745824073146
 30
0.0
  0
VERTEX
  5
3C8
330
3B2
100
AcDbEntity
  8
0
 62
     7
100
AcDbVertex
100
AcDb2dVertex
 10
-15.41479435965949
 20
113.1745824073146
 30
0.0
  0
VERTEX
  5
3C9
330
3B2
100
AcDbEntity
  8
0
 62
     7
100
AcDbVertex
100
AcDb2dVertex
 10
-15.41479435965949
 20
111.9744324073143
 30
0.0
  0
VERTEX
  5
3CA
330
3B2
100
AcDbEntity
  8
0
 62
     7
100
AcDbVertex
100
AcDb2dVertex
 10
-12.11584235965945
 20
111.9744324073143
 30
0.0
  0
VERTEX
  5
3CB
330
3B2
100
AcDbEntity
  8
0
 62
     7
100
AcDbVertex
100
AcDb2dVertex
 10
-12.11584235965945
 20
113.1745824073146
 30
0.0
  0
VERTEX
  5
3CC
330
3B2
100
AcDbEntity
  8
0
 62
     7
100
AcDbVertex
100
AcDb2dVertex
 10
-10.39042035965936
 20
113.1745824073146
 30
0.0
  0
VERTEX
  5
3CD
330
3B2
100
AcDbEntity
  8
0
 62
     7
100
AcDbVertex
100
AcDb2dVertex
 10
-10.39042035965936
 20
119.4435564073149
 30
0.0
  0
VERTEX
  5
3CE
330
3B2
100
AcDbEntity
  8
0
 62
     7
100
AcDbVertex
100
AcDb2dVertex
 10
-9.564920359659377
 20
119.4435564073149
 30
0.0
  0
VERTEX
  5
3CF
330
3B2
100
AcDbEntity
  8
0
 62
     7
100
AcDbVertex
100
AcDb2dVertex
 10
-9.564920359659377
 20
122.2436524073143
 30
0.0
  0
VERTEX
  5
3D0
330
3B2
100
AcDbEntity
  8
0
 62
     7
100
AcDbVertex
100
AcDb2dVertex
 10
-10.39042035965936
 20
122.2436524073143
 30
0.0
  0
VERTEX
  5
3D1
330
3B2
100
AcDbEntity
  8
0
 62
     7
100
AcDbVertex
100
AcDb2dVertex
 10
-10.39042035965936
 20
125.4737704073148
 30
0.0
  0
VERTEX
  5
3D2
330
3B2
100
AcDbEntity
  8
0
 62
     7
100
AcDbVertex
100
AcDb2dVertex
 10
-17.13996235965933
 20
125.4737704073148
 30
0.0
  0
VERTEX
  5
3D3
330
3B2
100
AcDbEntity
  8
0
 62
     7
100
AcDbVertex
100
AcDb2dVertex
 10
-17.13996235965933
 20
122.2436524073143
 30
0.0
  0
VERTEX
  5
3D4
330
3B2
100
AcDbEntity
  8
0
 62
     7
100
AcDbVertex
100
AcDb2dVertex
 10
-18.66548635965934
 20
122.2436524073143
 30
0.0
  0
VERTEX
  5
3D5
330
3B2
100
AcDbEntity
  8
0
 62
     7
100
AcDbVertex
100
AcDb2dVertex
 10
-18.66548635965934
 20
126.9441764073147
 30
0.0
  0
VERTEX
  5
3D6
330
3B2
100
AcDbEntity
  8
0
 62
     7
100
AcDbVertex
100
AcDb2dVertex
 10
-32.66495035965947
 20
126.9441764073147
 30
0.0
  0
VERTEX
  5
3D7
330
3B2
100
AcDbEntity
  8
0
 62
     7
100
AcDbVertex
100
AcDb2dVertex
 10
-32.66495035965947
 20
122.2436524073143
 30
0.0
  0
SEQEND
  5
3D8
330
3B2
100
AcDbEntity
  8
0
 62
     7
  0
ENDBLK
  5
3B1
330
3AE
100
AcDbEntity
  8
0
100
AcDbBlockEnd
  0
BLOCK
  5
3DB
330
3D9
100
AcDbEntity
  8
0
100
AcDbBlockBegin
  2
BLOCK_77
 70
     0
 10
0.0
 20
0.0
 30
0.0
  3
BLOCK_77
  1

  0
POLYLINE
  5
3DD
330
3D9
100
AcDbEntity
  8
0
 62
     7
100
AcDb2dPolyline
 66
     1
 10
0.0
 20
0.0
 30
0.0
  0
VERTEX
  5
3DE
330
3DD
100
AcDbEntity
  8
0
 62
     7
100
AcDbVertex
100
AcDb2dVertex
 10
-28.19048635965943
 20
107.8954464073148
 30
0.0
  0
VERTEX
  5
3DF
330
3DD
100
AcDbEntity
  8
0
 62
     7
100
AcDbVertex
100
AcDb2dVertex
 10
-28.19048635965943
 20
93.89471240731436
 30
0.0
  0
VERTEX
  5
3E0
330
3DD
100
AcDbEntity
  8
0
 62
     7
100
AcDbVertex
100
AcDb2dVertex
 10
-42.18995035965925
 20
93.89471240731436
 30
0.0
  0
VERTEX
  5
3E1
330
3DD
100
AcDbEntity
  8
0
 62
     7
100
AcDbVertex
100
AcDb2dVertex
 10
-42.18995035965925
 20
107.8954464073148
 30
0.0
  0
VERTEX
  5
3E2
330
3DD
100
AcDbEntity
  8
0
 62
     7
100
AcDbVertex
100
AcDb2dVertex
 10
-28.19048635965943
 20
107.8954464073148
 30
0.0
  0
SEQEND
  5
3E3
330
3DD
100
AcDbEntity
  8
0
 62
     7
  0
ENDBLK
  5
3DC
330
3D9
100
AcDbEntity
  8
0
100
AcDbBlockEnd
  0
BLOCK
  5
3E6
330
3E4
100
AcDbEntity
  8
0
100
AcDbBlockBegin
  2
BLOCK_78
 70
     0
 10
0.0
 20
0.0
 30
0.0
  3
BLOCK_78
  1

  0
POLYLINE
  5
3E8
330
3E4
100
AcDbEntity
  8
0
 62
     7
100
AcDb2dPolyline
 66
     1
 10
0.0
 20
0.0
 30
0.0
  0
VERTEX
  5
3E9
330
3E8
100
AcDbEntity
  8
0
 62
     7
100
AcDbVertex
100
AcDb2dVertex
 10
-4.377986359659513
 20
107.8954464073148
 30
0.0
  0
VERTEX
  5
3EA
330
3E8
100
AcDbEntity
  8
0
 62
     7
100
AcDbVertex
100
AcDb2dVertex
 10
-4.377986359659513
 20
93.89471240731436
 30
0.0
  0
VERTEX
  5
3EB
330
3E8
100
AcDbEntity
  8
0
 62
     7
100
AcDbVertex
100
AcDb2dVertex
 10
-18.37745035965933
 20
93.89471240731436
 30
0.0
  0
VERTEX
  5
3EC
330
3E8
100
AcDbEntity
  8
0
 62
     7
100
AcDbVertex
100
AcDb2dVertex
 10
-18.37745035965933
 20
107.8954464073148
 30
0.0
  0
VERTEX
  5
3ED
330
3E8
100
AcDbEntity
  8
0
 62
     7
100
AcDbVertex
100
AcDb2dVertex
 10
-4.377986359659513
 20
107.8954464073148
 30
0.0
  0
SEQEND
  5
3EE
330
3E8
100
AcDbEntity
  8
0
 62
     7
  0
ENDBLK
  5
3E7
330
3E4
100
AcDbEntity
  8
0
100
AcDbBlockEnd
  0
BLOCK
  5
3F1
330
3EF
100
AcDbEntity
  8
0
100
AcDbBlockBegin
  2
BLOCK_79
 70
     0
 10
0.0
 20
0.0
 30
0.0
  3
BLOCK_79
  1

  0
POLYLINE
  5
3F3
330
3EF
100
AcDbEntity
  8
0
 62
     7
100
AcDb2dPolyline
 66
     1
 10
0.0
 20
0.0
 30
0.0
  0
VERTEX
  5
3F4
330
3F3
100
AcDbEntity
  8
0
 62
     7
100
AcDbVertex
100
AcDb2dVertex
 10
19.43451364034073
 20
107.8954464073148
 30
0.0
  0
VERTEX
  5
3F5
330
3F3
100
AcDbEntity
  8
0
 62
     7
100
AcDbVertex
100
AcDb2dVertex
 10
19.43451364034073
 20
93.89471240731436
 30
0.0
  0
VERTEX
  5
3F6
330
3F3
100
AcDbEntity
  8
0
 62
     7
100
AcDbVertex
100
AcDb2dVertex
 10
5.434795640340653
 20
93.89471240731436
 30
0.0
  0
VERTEX
  5
3F7
330
3F3
100
AcDbEntity
  8
0
 62
     7
100
AcDbVertex
100
AcDb2dVertex
 10
5.434795640340653
 20
107.8954464073148
 30
0.0
  0
VERTEX
  5
3F8
330
3F3
100
AcDbEntity
  8
0
 62
     7
100
AcDbVertex
100
AcDb2dVertex
 10
19.43451364034073
 20
107.8954464073148
 30
0.0
  0
SEQEND
  5
3F9
330
3F3
100
AcDbEntity
  8
0
 62
     7
  0
ENDBLK
  5
3F2
330
3EF
100
AcDbEntity
  8
0
100
AcDbBlockEnd
  0
BLOCK
  5
3FC
330
3FA
100
AcDbEntity
  8
0
100
AcDbBlockBegin
  2
BLOCK_80
 70
     0
 10
0.0
 20
0.0
 30
0.0
  3
BLOCK_80
  1

  0
POLYLINE
  5
3FE
330
3FA
100
AcDbEntity
  8
0
 62
     7
100
AcDb2dPolyline
 66
     1
 10
0.0
 20
0.0
 30
0.0
  0
VERTEX
  5
3FF
330
3FE
100
AcDbEntity
  8
0
 62
     7
100
AcDbVertex
100
AcDb2dVertex
 10
32.22112764034052
 20
107.6640524073145
 30
0.0
  0
VERTEX
  5
400
330
3FE
100
AcDbEntity
  8
0
 62
     7
100
AcDbVertex
100
AcDb2dVertex
 10
30.49722964034069
 20
107.6640524073145
 30
0.0
  0
VERTEX
  5
401
330
3FE
100
AcDbEntity
  8
0
 62
     7
100
AcDbVertex
100
AcDb2dVertex
 10
30.49722964034069
 20
101.3953324073148
 30
0.0
  0
VERTEX
  5
402
330
3FE
100
AcDbEntity
  8
0
 62
     7
100
AcDbVertex
100
AcDb2dVertex
 10
29.67172964034071
 20
101.3953324073148
 30
0.0
  0
VERTEX
  5
403
330
3FE
100
AcDbEntity
  8
0
 62
     7
100
AcDbVertex
100
AcDb2dVertex
 10
29.67172964034071
 20
98.59371240731446
 30
0.0
  0
VERTEX
  5
404
330
3FE
100
AcDbEntity
  8
0
 62
     7
100
AcDbVertex
100
AcDb2dVertex
 10
30.49722964034069
 20
98.59371240731446
 30
0.0
  0
VERTEX
  5
405
330
3FE
100
AcDbEntity
  8
0
 62
     7
100
AcDbVertex
100
AcDb2dVertex
 10
30.49722964034069
 20
95.36511840731491
 30
0.0
  0
VERTEX
  5
406
330
3FE
100
AcDbEntity
  8
0
 62
     7
100
AcDbVertex
100
AcDb2dVertex
 10
37.24677164034065
 20
95.36511840731491
 30
0.0
  0
VERTEX
  5
407
330
3FE
100
AcDbEntity
  8
0
 62
     7
100
AcDbVertex
100
AcDb2dVertex
 10
37.24677164034065
 20
98.59371240731446
 30
0.0
  0
VERTEX
  5
408
330
3FE
100
AcDbEntity
  8
0
 62
     7
100
AcDbVertex
100
AcDb2dVertex
 10
76.87077164034046
 20
98.59371240731446
 30
0.0
  0
VERTEX
  5
409
330
3FE
100
AcDbEntity
  8
0
 62
     7
100
AcDbVertex
100
AcDb2dVertex
 10
76.87077164034046
 20
93.89471240731436
 30
0.0
  0
VERTEX
  5
40A
330
3FE
100
AcDbEntity
  8
0
 62
     7
100
AcDbVertex
100
AcDb2dVertex
 10
90.87175964034054
 20
93.89471240731436
 30
0.0
  0
VERTEX
  5
40B
330
3FE
100
AcDbEntity
  8
0
 62
     7
100
AcDbVertex
100
AcDb2dVertex
 10
90.87175964034054
 20
98.59523640731473
 30
0.0
  0
VERTEX
  5
40C
330
3FE
100
AcDbEntity
  8
0
 62
     7
100
AcDbVertex
100
AcDb2dVertex
 10
130.4967756403404
 20
98.59523640731473
 30
0.0
  0
VERTEX
  5
40D
330
3FE
100
AcDbEntity
  8
0
 62
     7
100
AcDbVertex
100
AcDb2dVertex
 10
130.4967756403404
 20
95.36511840731491
 30
0.0
  0
VERTEX
  5
40E
330
3FE
100
AcDbEntity
  8
0
 62
     7
100
AcDbVertex
100
AcDb2dVertex
 10
137.2465716403406
 20
95.36511840731491
 30
0.0
  0
VERTEX
  5
40F
330
3FE
100
AcDbEntity
  8
0
 62
     7
100
AcDbVertex
100
AcDb2dVertex
 10
137.2465716403406
 20
98.59523640731473
 30
0.0
  0
VERTEX
  5
410
330
3FE
100
AcDbEntity
  8
0
 62
     7
100
AcDbVertex
100
AcDb2dVertex
 10
138.0725796403408
 20
98.59523640731473
 30
0.0
  0
VERTEX
  5
411
330
3FE
100
AcDbEntity
  8
0
 62
     7
100
AcDbVertex
100
AcDb2dVertex
 10
138.0725796403408
 20
101.3953324073148
 30
0.0
  0
VERTEX
  5
412
330
3FE
100
AcDbEntity
  8
0
 62
     7
100
AcDbVertex
100
AcDb2dVertex
 10
137.2465716403406
 20
101.3953324073148
 30
0.0
  0
VERTEX
  5
413
330
3FE
100
AcDbEntity
  8
0
 62
     7
100
AcDbVertex
100
AcDb2dVertex
 10
137.2465716403406
 20
107.6653224073149
 30
0.0
  0
VERTEX
  5
414
330
3FE
100
AcDbEntity
  8
0
 62
     7
100
AcDbVertex
100
AcDb2dVertex
 10
135.5216576403404
 20
107.6653224073149
 30
0.0
  0
VERTEX
  5
415
330
3FE
100
AcDbEntity
  8
0
 62
     7
100
AcDbVertex
100
AcDb2dVertex
 10
135.5216576403404
 20
108.8642024073148
 30
0.0
  0
VERTEX
  5
416
330
3FE
100
AcDbEntity
  8
0
 62
     7
100
AcDbVertex
100
AcDb2dVertex
 10
132.2206736403409
 20
108.8642024073148
 30
0.0
  0
VERTEX
  5
417
330
3FE
100
AcDbEntity
  8
0
 62
     7
100
AcDbVertex
100
AcDb2dVertex
 10
132.2206736403409
 20
107.6653224073149
 30
0.0
  0
VERTEX
  5
418
330
3FE
100
AcDbEntity
  8
0
 62
     7
100
AcDbVertex
100
AcDb2dVertex
 10
130.4967756403404
 20
107.6653224073149
 30
0.0
  0
VERTEX
  5
419
330
3FE
100
AcDbEntity
  8
0
 62
     7
100
AcDbVertex
100
AcDb2dVertex
 10
130.4967756403404
 20
103.1949224073145
 30
0.0
  0
VERTEX
  5
41A
330
3FE
100
AcDbEntity
  8
0
 62
     7
100
AcDbVertex
100
AcDb2dVertex
 10
90.87175964034054
 20
103.1949224073145
 30
0.0
  0
VERTEX
  5
41B
330
3FE
100
AcDbEntity
  8
0
 62
     7
100
AcDbVertex
100
AcDb2dVertex
 10
90.87175964034054
 20
107.8954464073148
 30
0.0
  0
VERTEX
  5
41C
330
3FE
100
AcDbEntity
  8
0
 62
     7
100
AcDbVertex
100
AcDb2dVertex
 10
76.87077164034046
 20
107.8954464073148
 30
0.0
  0
VERTEX
  5
41D
330
3FE
100
AcDbEntity
  8
0
 62
     7
100
AcDbVertex
100
AcDb2dVertex
 10
76.87077164034046
 20
103.1936524073148
 30
0.0
  0
VERTEX
  5
41E
330
3FE
100
AcDbEntity
  8
0
 62
     7
100
AcDbVertex
100
AcDb2dVertex
 10
37.24677164034065
 20
103.1936524073148
 30
0.0
  0
VERTEX
  5
41F
330
3FE
100
AcDbEntity
  8
0
 62
     7
100
AcDbVertex
100
AcDb2dVertex
 10
37.24677164034065
 20
107.6640524073145
 30
0.0
  0
VERTEX
  5
420
330
3FE
100
AcDbEntity
  8
0
 62
     7
100
AcDbVertex
100
AcDb2dVertex
 10
35.52134964034057
 20
107.6640524073145
 30
0.0
  0
VERTEX
  5
421
330
3FE
100
AcDbEntity
  8
0
 62
     7
100
AcDbVertex
100
AcDb2dVertex
 10
35.52134964034057
 20
108.8642024073148
 30
0.0
  0
VERTEX
  5
422
330
3FE
100
AcDbEntity
  8
0
 62
     7
100
AcDbVertex
100
AcDb2dVertex
 10
32.22112764034052
 20
108.8642024073148
 30
0.0
  0
VERTEX
  5
423
330
3FE
100
AcDbEntity
  8
0
 62
     7
100
AcDbVertex
100
AcDb2dVertex
 10
32.22112764034052
 20
107.6640524073145
 30
0.0
  0
SEQEND
  5
424
330
3FE
100
AcDbEntity
  8
0
 62
     7
  0
ENDBLK
  5
3FD
330
3FA
100
AcDbEntity
  8
0
100
AcDbBlockEnd
  0
BLOCK
  5
427
330
425
100
AcDbEntity
  8
0
100
AcDbBlockBegin
  2
BLOCK_81
 70
     0
 10
0.0
 20
0.0
 30
0.0
  3
BLOCK_81
  1

  0
POLYLINE
  5
429
330
425
100
AcDbEntity
  8
0
 62
     7
100
AcDb2dPolyline
 66
     1
 10
0.0
 20
0.0
 30
0.0
  0
VERTEX
  5
42A
330
429
100
AcDbEntity
  8
0
 62
     7
100
AcDbVertex
100
AcDb2dVertex
 10
159.9295336403407
 20
107.8954464073148
 30
0.0
  0
VERTEX
  5
42B
330
429
100
AcDbEntity
  8
0
 62
     7
100
AcDbVertex
100
AcDb2dVertex
 10
159.9295336403407
 20
93.89471240731436
 30
0.0
  0
VERTEX
  5
42C
330
429
100
AcDbEntity
  8
0
 62
     7
100
AcDbVertex
100
AcDb2dVertex
 10
145.9285456403409
 20
93.89471240731436
 30
0.0
  0
VERTEX
  5
42D
330
429
100
AcDbEntity
  8
0
 62
     7
100
AcDbVertex
100
AcDb2dVertex
 10
145.9285456403409
 20
107.8954464073148
 30
0.0
  0
VERTEX
  5
42E
330
429
100
AcDbEntity
  8
0
 62
     7
100
AcDbVertex
100
AcDb2dVertex
 10
159.9295336403407
 20
107.8954464073148
 30
0.0
  0
SEQEND
  5
42F
330
429
100
AcDbEntity
  8
0
 62
     7
  0
ENDBLK
  5
428
330
425
100
AcDbEntity
  8
0
100
AcDbBlockEnd
  0
BLOCK
  5
432
330
430
100
AcDbEntity
  8
0
100
AcDbBlockBegin
  2
BLOCK_82
 70
     0
 10
0.0
 20
0.0
 30
0.0
  3
BLOCK_82
  1

  0
POLYLINE
  5
434
330
430
100
AcDbEntity
  8
0
 62
     7
100
AcDb2dPolyline
 66
     1
 10
0.0
 20
0.0
 30
0.0
  0
VERTEX
  5
435
330
434
100
AcDbEntity
  8
0
 62
     7
100
AcDbVertex
100
AcDb2dVertex
 10
178.9795336403409
 20
107.8954464073148
 30
0.0
  0
VERTEX
  5
436
330
434
100
AcDbEntity
  8
0
 62
     7
100
AcDbVertex
100
AcDb2dVertex
 10
178.9795336403409
 20
93.89471240731436
 30
0.0
  0
VERTEX
  5
437
330
434
100
AcDbEntity
  8
0
 62
     7
100
AcDbVertex
100
AcDb2dVertex
 10
164.9785456403405
 20
93.89471240731436
 30
0.0
  0
VERTEX
  5
438
330
434
100
AcDbEntity
  8
0
 62
     7
100
AcDbVertex
100
AcDb2dVertex
 10
164.9785456403405
 20
107.8954464073148
 30
0.0
  0
VERTEX
  5
439
330
434
100
AcDbEntity
  8
0
 62
     7
100
AcDbVertex
100
AcDb2dVertex
 10
178.9795336403409
 20
107.8954464073148
 30
0.0
  0
SEQEND
  5
43A
330
434
100
AcDbEntity
  8
0
 62
     7
  0
ENDBLK
  5
433
330
430
100
AcDbEntity
  8
0
100
AcDbBlockEnd
  0
BLOCK
  5
43D
330
43B
100
AcDbEntity
  8
0
100
AcDbBlockBegin
  2
BLOCK_83
 70
     0
 10
0.0
 20
0.0
 30
0.0
  3
BLOCK_83
  1

  0
POLYLINE
  5
43F
330
43B
100
AcDbEntity
  8
0
 62
     7
100
AcDb2dPolyline
 66
     1
 10
0.0
 20
0.0
 30
0.0
  0
VERTEX
  5
440
330
43F
100
AcDbEntity
  8
0
 62
     7
100
AcDbVertex
100
AcDb2dVertex
 10
198.0295336403404
 20
107.8954464073148
 30
0.0
  0
VERTEX
  5
441
330
43F
100
AcDbEntity
  8
0
 62
     7
100
AcDbVertex
100
AcDb2dVertex
 10
198.0295336403404
 20
93.89471240731436
 30
0.0
  0
VERTEX
  5
442
330
43F
100
AcDbEntity
  8
0
 62
     7
100
AcDbVertex
100
AcDb2dVertex
 10
184.0285456403407
 20
93.89471240731436
 30
0.0
  0
VERTEX
  5
443
330
43F
100
AcDbEntity
  8
0
 62
     7
100
AcDbVertex
100
AcDb2dVertex
 10
184.0285456403407
 20
107.8954464073148
 30
0.0
  0
VERTEX
  5
444
330
43F
100
AcDbEntity
  8
0
 62
     7
100
AcDbVertex
100
AcDb2dVertex
 10
198.0295336403404
 20
107.8954464073148
 30
0.0
  0
SEQEND
  5
445
330
43F
100
AcDbEntity
  8
0
 62
     7
  0
ENDBLK
  5
43E
330
43B
100
AcDbEntity
  8
0
100
AcDbBlockEnd
  0
BLOCK
  5
448
330
446
100
AcDbEntity
  8
0
100
AcDbBlockBegin
  2
BLOCK_84
 70
     0
 10
0.0
 20
0.0
 30
0.0
  3
BLOCK_84
  1

  0
POLYLINE
  5
44A
330
446
100
AcDbEntity
  8
0
 62
     7
100
AcDb2dPolyline
 66
     1
 10
0.0
 20
0.0
 30
0.0
  0
VERTEX
  5
44B
330
44A
100
AcDbEntity
  8
0
 62
     7
100
AcDbVertex
100
AcDb2dVertex
 10
217.0795336403406
 20
107.8954464073148
 30
0.0
  0
VERTEX
  5
44C
330
44A
100
AcDbEntity
  8
0
 62
     7
100
AcDbVertex
100
AcDb2dVertex
 10
217.0795336403406
 20
93.89471240731436
 30
0.0
  0
VERTEX
  5
44D
330
44A
100
AcDbEntity
  8
0
 62
     7
100
AcDbVertex
100
AcDb2dVertex
 10
203.0785456403409
 20
93.89471240731436
 30
0.0
  0
VERTEX
  5
44E
330
44A
100
AcDbEntity
  8
0
 62
     7
100
AcDbVertex
100
AcDb2dVertex
 10
203.0785456403409
 20
107.8954464073148
 30
0.0
  0
VERTEX
  5
44F
330
44A
100
AcDbEntity
  8
0
 62
     7
100
AcDbVertex
100
AcDb2dVertex
 10
217.0795336403406
 20
107.8954464073148
 30
0.0
  0
SEQEND
  5
450
330
44A
100
AcDbEntity
  8
0
 62
     7
  0
ENDBLK
  5
449
330
446
100
AcDbEntity
  8
0
100
AcDbBlockEnd
  0
BLOCK
  5
453
330
451
100
AcDbEntity
  8
0
100
AcDbBlockBegin
  2
BLOCK_85
 70
     0
 10
0.0
 20
0.0
 30
0.0
  3
BLOCK_85
  1

  0
POLYLINE
  5
455
330
451
100
AcDbEntity
  8
0
 62
     7
100
AcDb2dPolyline
 66
     1
 10
0.0
 20
0.0
 30
0.0
  0
VERTEX
  5
456
330
455
100
AcDbEntity
  8
0
 62
     7
100
AcDbVertex
100
AcDb2dVertex
 10
236.1295336403408
 20
107.8954464073148
 30
0.0
  0
VERTEX
  5
457
330
455
100
AcDbEntity
  8
0
 62
     7
100
AcDbVertex
100
AcDb2dVertex
 10
236.1295336403408
 20
93.89471240731436
 30
0.0
  0
VERTEX
  5
458
330
455
100
AcDbEntity
  8
0
 62
     7
100
AcDbVertex
100
AcDb2dVertex
 10
222.1285456403404
 20
93.89471240731436
 30
0.0
  0
VERTEX
  5
459
330
455
100
AcDbEntity
  8
0
 62
     7
100
AcDbVertex
100
AcDb2dVertex
 10
222.1285456403404
 20
107.8954464073148
 30
0.0
  0
VERTEX
  5
45A
330
455
100
AcDbEntity
  8
0
 62
     7
100
AcDbVertex
100
AcDb2dVertex
 10
236.1295336403408
 20
107.8954464073148
 30
0.0
  0
SEQEND
  5
45B
330
455
100
AcDbEntity
  8
0
 62
     7
  0
ENDBLK
  5
454
330
451
100
AcDbEntity
  8
0
100
AcDbBlockEnd
  0
BLOCK
  5
45E
330
45C
100
AcDbEntity
  8
0
100
AcDbBlockBegin
  2
BLOCK_86
 70
     0
 10
0.0
 20
0.0
 30
0.0
  3
BLOCK_86
  1

  0
POLYLINE
  5
460
330
45C
100
AcDbEntity
  8
0
 62
     7
100
AcDb2dPolyline
 66
     1
 10
0.0
 20
0.0
 30
0.0
  0
VERTEX
  5
461
330
460
100
AcDbEntity
  8
0
 62
     7
100
AcDbVertex
100
AcDb2dVertex
 10
255.1795336403404
 20
107.8954464073148
 30
0.0
  0
VERTEX
  5
462
330
460
100
AcDbEntity
  8
0
 62
     7
100
AcDbVertex
100
AcDb2dVertex
 10
255.1795336403404
 20
93.89471240731436
 30
0.0
  0
VERTEX
  5
463
330
460
100
AcDbEntity
  8
0
 62
     7
100
AcDbVertex
100
AcDb2dVertex
 10
241.1785456403406
 20
93.89471240731436
 30
0.0
  0
VERTEX
  5
464
330
460
100
AcDbEntity
  8
0
 62
     7
100
AcDbVertex
100
AcDb2dVertex
 10
241.1785456403406
 20
107.8954464073148
 30
0.0
  0
VERTEX
  5
465
330
460
100
AcDbEntity
  8
0
 62
     7
100
AcDbVertex
100
AcDb2dVertex
 10
255.1795336403404
 20
107.8954464073148
 30
0.0
  0
SEQEND
  5
466
330
460
100
AcDbEntity
  8
0
 62
     7
  0
ENDBLK
  5
45F
330
45C
100
AcDbEntity
  8
0
100
AcDbBlockEnd
  0
BLOCK
  5
469
330
467
100
AcDbEntity
  8
0
100
AcDbBlockBegin
  2
BLOCK_87
 70
     0
 10
0.0
 20
0.0
 30
0.0
  3
BLOCK_87
  1

  0
SPLINE
  5
46B
330
467
100
AcDbEntity
  8
0
 62
     7
100
AcDbSpline
210
0.0
220
0.0
230
1.0
 70
    11
 71
     3
 72
   509
 73
   505
 74
     0
 42
0.0000000001
 43
0.0000000001
 12
1.0
 22
0.0
 32
0.0
 13
1.0
 23
0.0
 33
0.0
 40
0.0
 40
0.0
 40
0.0
 40
0.0
 40
1.0
 40
1.0
 40
1.0
 40
2.0
 40
2.0
 40
2.0
 40
3.0
 40
3.0
 40
3.0
 40
4.0
 40
4.0
 40
4.0
 40
5.0
 40
5.0
 40
5.0
 40
6.0
 40
6.0
 40
6.0
 40
7.0
 40
7.0
 40
7.0
 40
8.0
 40
8.0
 40
8.0
 40
9.0
 40
9.0
 40
9.0
 40
10.0
 40
10.0
 40
10.0
 40
11.0
 40
11.0
 40
11.0
 40
12.0
 40
12.0
 40
12.0
 40
13.0
 40
13.0
 40
13.0
 40
14.0
 40
14.0
 40
14.0
 40
15.0
 40
15.0
 40
15.0
 40
16.0
 40
16.0
 40
16.0
 40
17.0
 40
17.0
 40
17.0
 40
18.0
 40
18.0
 40
18.0
 40
19.0
 40
19.0
 40
19.0
 40
20.0
 40
20.0
 40
20.0
 40
21.0
 40
21.0
 40
21.0
 40
22.0
 40
22.0
 40
22.0
 40
23.0
 40
23.0
 40
23.0
 40
24.0
 40
24.0
 40
24.0
 40
25.0
 40
25.0
 40
25.0
 40
26.0
 40
26.0
 40
26.0
 40
27.0
 40
27.0
 40
27.0
 40
28.0
 40
28.0
 40
28.0
 40
29.0
 40
29.0
 40
29.0
 40
30.0
 40
30.0
 40
30.0
 40
31.0
 40
31.0
 40
31.0
 40
32.0
 40
32.0
 40
32.0
 40
33.0
 40
33.0
 40
33.0
 40
34.0
 40
34.0
 40
34.0
 40
35.0
 40
35.0
 40
35.0
 40
36.0
 40
36.0
 40
36.0
 40
37.0
 40
37.0
 40
37.0
 40
38.0
 40
38.0
 40
38.0
 40
39.0
 40
39.0
 40
39.0
 40
40.0
 40
40.0
 40
40.0
 40
41.0
 40
41.0
 40
41.0
 40
42.0
 40
42.0
 40
42.0
 40
43.0
 40
43.0
 40
43.0
 40
44.0
 40
44.0
 40
44.0
 40
45.0
 40
45.0
 40
45.0
 40
46.0
 40
46.0
 40
46.0
 40
47.0
 40
47.0
 40
47.0
 40
48.0
 40
48.0
 40
48.0
 40
49.0
 40
49.0
 40
49.0
 40
50.0
 40
50.0
 40
50.0
 40
51.0
 40
51.0
 40
51.0
 40
52.0
 40
52.0
 40
52.0
 40
53.0
 40
53.0
 40
53.0
 40
54.0
 40
54.0
 40
54.0
 40
55.0
 40
55.0
 40
55.0
 40
56.0
 40
56.0
 40
56.0
 40
57.0
 40
57.0
 40
57.0
 40
58.0
 40
58.0
 40
58.0
 40
59.0
 40
59.0
 40
59.0
 40
60.0
 40
60.0
 40
60.0
 40
61.0
 40
61.0
 40
61.0
 40
62.0
 40
62.0
 40
62.0
 40
63.0
 40
63.0
 40
63.0
 40
64.0
 40
64.0
 40
64.0
 40
65.0
 40
65.0
 40
65.0
 40
66.0
 40
66.0
 40
66.0
 40
67.0
 40
67.0
 40
67.0
 40
68.0
 40
68.0
 40
68.0
 40
69.0
 40
69.0
 40
69.0
 40
70.0
 40
70.0
 40
70.0
 40
71.0
 40
71.0
 40
71.0
 40
72.0
 40
72.0
 40
72.0
 40
73.0
 40
73.0
 40
73.0
 40
74.0
 40
74.0
 40
74.0
 40
75.0
 40
75.0
 40
75.0
 40
76.0
 40
76.0
 40
76.0
 40
77.0
 40
77.0
 40
77.0
 40
78.0
 40
78.0
 40
78.0
 40
79.0
 40
79.0
 40
79.0
 40
80.0
 40
80.0
 40
80.0
 40
81.0
 40
81.0
 40
81.0
 40
82.0
 40
82.0
 40
82.0
 40
83.0
 40
83.0
 40
83.0
 40
84.0
 40
84.0
 40
84.0
 40
85.0
 40
85.0
 40
85.0
 40
86.0
 40
86.0
 40
86.0
 40
87.0
 40
87.0
 40
87.0
 40
88.0
 40
88.0
 40
88.0
 40
89.0
 40
89.0
 40
89.0
 40
90.0
 40
90.0
 40
90.0
 40
91.0
 40
91.0
 40
91.0
 40
92.0
 40
92.0
 40
92.0
 40
93.0
 40
93.0
 40
93.0
 40
94.0
 40
94.0
 40
94.0
 40
95.0
 40
95.0
 40
95.0
 40
96.0
 40
96.0
 40
96.0
 40
97.0
 40
97.0
 40
97.0
 40
98.0
 40
98.0
 40
98.0
 40
99.0
 40
99.0
 40
99.0
 40
100.0
 40
100.0
 40
100.0
 40
101.0
 40
101.0
 40
101.0
 40
102.0
 40
102.0
 40
102.0
 40
103.0
 40
103.0
 40
103.0
 40
104.0
 40
104.0
 40
104.0
 40
105.0
 40
105.0
 40
105.0
 40
106.0
 40
106.0
 40
106.0
 40
107.0
 40
107.0
 40
107.0
 40
108.0
 40
108.0
 40
108.0
 40
109.0
 40
109.0
 40
109.0
 40
110.0
 40
110.0
 40
110.0
 40
111.0
 40
111.0
 40
111.0
 40
112.0
 40
112.0
 40
112.0
 40
113.0
 40
113.0
 40
113.0
 40
114.0
 40
114.0
 40
114.0
 40
115.0
 40
115.0
 40
115.0
 40
116.0
 40
116.0
 40
116.0
 40
117.0
 40
117.0
 40
117.0
 40
118.0
 40
118.0
 40
118.0
 40
119.0
 40
119.0
 40
119.0
 40
120.0
 40
120.0
 40
120.0
 40
121.0
 40
121.0
 40
121.0
 40
122.0
 40
122.0
 40
122.0
 40
123.0
 40
123.0
 40
123.0
 40
124.0
 40
124.0
 40
124.0
 40
125.0
 40
125.0
 40
125.0
 40
126.0
 40
126.0
 40
126.0
 40
127.0
 40
127.0
 40
127.0
 40
128.0
 40
128.0
 40
128.0
 40
129.0
 40
129.0
 40
129.0
 40
130.0
 40
130.0
 40
130.0
 40
131.0
 40
131.0
 40
131.0
 40
132.0
 40
132.0
 40
132.0
 40
133.0
 40
133.0
 40
133.0
 40
134.0
 40
134.0
 40
134.0
 40
135.0
 40
135.0
 40
135.0
 40
136.0
 40
136.0
 40
136.0
 40
137.0
 40
137.0
 40
137.0
 40
138.0
 40
138.0
 40
138.0
 40
139.0
 40
139.0
 40
139.0
 40
140.0
 40
140.0
 40
140.0
 40
141.0
 40
141.0
 40
141.0
 40
142.0
 40
142.0
 40
142.0
 40
143.0
 40
143.0
 40
143.0
 40
144.0
 40
144.0
 40
144.0
 40
145.0
 40
145.0
 40
145.0
 40
146.0
 40
146.0
 40
146.0
 40
147.0
 40
147.0
 40
147.0
 40
148.0
 40
148.0
 40
148.0
 40
149.0
 40
149.0
 40
149.0
 40
150.0
 40
150.0
 40
150.0
 40
151.0
 40
151.0
 40
151.0
 40
152.0
 40
152.0
 40
152.0
 40
153.0
 40
153.0
 40
153.0
 40
154.0
 40
154.0
 40
154.0
 40
155.0
 40
155.0
 40
155.0
 40
156.0
 40
156.0
 40
156.0
 40
157.0
 40
157.0
 40
157.0
 40
158.0
 40
158.0
 40
158.0
 40
159.0
 40
159.0
 40
159.0
 40
160.0
 40
160.0
 40
160.0
 40
161.0
 40
161.0
 40
161.0
 40
162.0
 40
162.0
 40
162.0
 40
163.0
 40
163.0
 40
163.0
 40
164.0
 40
164.0
 40
164.0
 40
165.0
 40
165.0
 40
165.0
 40
166.0
 40
166.0
 40
166.0
 40
167.0
 40
167.0
 40
167.0
 40
168.0
 40
168.0
 40
168.0
 40
168.0
 10
256.1693716403409
 20
205.6130564073144
 30
0.0
 10
256.1693716403409
 20
205.6130564073144
 30
0.0
 10
256.0174796403408
 20
205.6450604073145
 30
0.0
 10
256.0174796403408
 20
205.6450604073145
 30
0.0
 10
256.0174796403408
 20
205.6450604073145
 30
0.0
 10
255.8605076403406
 20
205.6630944073145
 30
0.0
 10
255.8605076403406
 20
205.6630944073145
 30
0.0
 10
255.8605076403406
 20
205.6630944073145
 30
0.0
 10
256.0174796403408
 20
205.6450604073145
 30
0.0
 10
256.0174796403408
 20
205.6450604073145
 30
0.0
 10
256.0174796403408
 20
205.6450604073145
 30
0.0
 10
256.1693716403403
 20
205.6130564073147
 30
0.0
 10
256.1693716403403
 20
205.6130564073147
 30
0.0
 10
256.1693716403409
 20
205.6130564073144
 30
0.0
 10
256.3225336403407
 20
205.5721624073146
 30
0.0
 10
256.3225336403407
 20
205.5721624073146
 30
0.0
 10
256.3225336403407
 20
205.5721624073146
 30
0.0
 10
256.4683296403405
 20
205.5170444073145
 30
0.0
 10
256.4683296403405
 20
205.5170444073145
 30
0.0
 10
256.4683296403405
 20
205.5170444073145
 30
0.0
 10
256.6103156403405
 20
205.4520204073146
 30
0.0
 10
256.6103156403405
 20
205.4520204073146
 30
0.0
 10
256.6103156403405
 20
205.4520204073146
 30
0.0
 10
256.7484916403408
 20
205.3750584073145
 30
0.0
 10
256.7484916403408
 20
205.3750584073145
 30
0.0
 10
256.7484916403408
 20
205.3750584073145
 30
0.0
 10
256.8795556403404
 20
205.2881904073146
 30
0.0
 10
256.8795556403404
 20
205.2881904073146
 30
0.0
 10
256.8795556403404
 20
205.2881904073146
 30
0.0
 10
257.0024916403406
 20
205.1901464073145
 30
0.0
 10
257.0024916403406
 20
205.1901464073145
 30
0.0
 10
257.0024916403406
 20
205.1901464073145
 30
0.0
 10
257.1183156403407
 20
205.0839744073146
 30
0.0
 10
257.1183156403407
 20
205.0839744073146
 30
0.0
 10
257.1183156403407
 20
205.0839744073146
 30
0.0
 10
257.2244876403407
 20
204.9671344073144
 30
0.0
 10
257.2244876403407
 20
204.9671344073144
 30
0.0
 10
257.2244876403407
 20
204.9671344073144
 30
0.0
 10
257.3215156403403
 20
204.8441984073145
 30
0.0
 10
257.3215156403403
 20
204.8441984073145
 30
0.0
 10
257.3215156403403
 20
204.8441984073145
 30
0.0
 10
257.4104156403407
 20
204.7131344073146
 30
0.0
 10
257.4104156403407
 20
204.7131344073146
 30
0.0
 10
257.4104156403407
 20
204.7131344073146
 30
0.0
 10
257.4853456403407
 20
204.5769904073148
 30
0.0
 10
257.4853456403407
 20
204.5769904073148
 30
0.0
 10
257.4853456403407
 20
204.5769904073144
 30
0.0
 10
257.5513856403403
 20
204.4350044073147
 30
0.0
 10
257.5513856403403
 20
204.4350044073147
 30
0.0
 10
257.5513856403403
 20
204.4350044073147
 30
0.0
 10
257.6054876403404
 20
204.2881924073146
 30
0.0
 10
257.6054876403404
 20
204.2881924073146
 30
0.0
 10
257.6054876403404
 20
204.2881924073146
 30
0.0
 10
257.6484136403406
 20
204.1360464073146
 30
0.0
 10
257.6484136403406
 20
204.1360464073146
 30
0.0
 10
257.6484136403406
 20
204.1360464073146
 30
0.0
 10
257.6783856403409
 20
203.9821224073146
 30
0.0
 10
257.6783856403409
 20
203.9821224073146
 30
0.0
 10
257.6783856403409
 20
203.9821224073146
 30
0.0
 10
257.6984516403404
 20
203.8261664073145
 30
0.0
 10
257.6984516403404
 20
203.8261664073145
 30
0.0
 10
257.6984516403404
 20
203.8261664073145
 30
0.0
 10
257.7055636403405
 20
203.6691944073147
 30
0.0
 10
257.7055636403405
 20
203.6691944073147
 30
0.0
 10
257.7055636403405
 20
203.6691944073147
 30
0.0
 10
257.7055636403405
 20
93.36817040731488
 30
0.0
 10
257.7055636403405
 20
93.36817040731488
 30
0.0
 10
257.7055636403405
 20
93.36817040731488
 30
0.0
 10
257.6984516403404
 20
93.21246840731442
 30
0.0
 10
257.6984516403404
 20
93.21246840731442
 30
0.0
 10
257.6984516403404
 20
93.21246840731442
 30
0.0
 10
257.6783856403409
 20
93.0554964073149
 30
0.0
 10
257.6783856403409
 20
93.0554964073149
 30
0.0
 10
257.6783856403409
 20
93.0554964073149
 30
0.0
 10
257.6484136403406
 20
92.90233440731444
 30
0.0
 10
257.6484136403406
 20
92.90233440731444
 30
0.0
 10
257.6484136403406
 20
92.90233440731444
 30
0.0
 10
257.6054876403404
 20
92.74942640731456
 30
0.0
 10
257.6054876403404
 20
92.74942640731456
 30
0.0
 10
257.6054876403404
 20
92.74942640731456
 30
0.0
 10
257.5513856403403
 20
92.6033764073149
 30
0.0
 10
257.5513856403403
 20
92.6033764073149
 30
0.0
 10
257.5513856403403
 20
92.6033764073149
 30
0.0
 10
257.4853456403407
 20
92.46139040731488
 30
0.0
 10
257.4853456403407
 20
92.46139040731488
 30
0.0
 10
257.4853456403407
 20
92.46139040731488
 30
0.0
 10
257.4104156403407
 20
92.32372240731442
 30
0.0
 10
257.4104156403407
 20
92.32372240731442
 30
0.0
 10
257.4104156403407
 20
92.32372240731442
 30
0.0
 10
257.3215156403403
 20
92.1926584073149
 30
0.0
 10
257.3215156403403
 20
92.1926584073149
 30
0.0
 10
257.3215156403403
 20
92.1926584073149
 30
0.0
 10
257.2244876403407
 20
92.0702304073145
 30
0.0
 10
257.2244876403407
 20
92.0702304073145
 30
0.0
 10
257.2244876403407
 20
92.0702304073145
 30
0.0
 10
257.1183156403407
 20
91.9544064073144
 30
0.0
 10
257.1183156403407
 20
91.9544064073144
 30
0.0
 10
257.1183156403407
 20
91.9544064073144
 30
0.0
 10
257.0024916403406
 20
91.84823440731445
 30
0.0
 10
257.0024916403406
 20
91.84823440731445
 30
0.0
 10
257.0024916403406
 20
91.84823440731445
 30
0.0
 10
256.8795556403404
 20
91.75044440731435
 30
0.0
 10
256.8795556403404
 20
91.75044440731435
 30
0.0
 10
256.8795556403404
 20
91.75044440731435
 30
0.0
 10
256.7484916403408
 20
91.66230640731443
 30
0.0
 10
256.7484916403408
 20
91.66230640731443
 30
0.0
 10
256.7484916403408
 20
91.66230640731443
 30
0.0
 10
256.6103156403405
 20
91.58636040731469
 30
0.0
 10
256.6103156403405
 20
91.58636040731469
 30
0.0
 10
256.6103156403405
 20
91.58636040731469
 30
0.0
 10
256.4683296403405
 20
91.5203204073144
 30
0.0
 10
256.4683296403405
 20
91.5203204073144
 30
0.0
 10
256.4683296403405
 20
91.5203204073144
 30
0.0
 10
256.3225336403407
 20
91.4664724073143
 30
0.0
 10
256.3225336403407
 20
91.4664724073143
 30
0.0
 10
256.3225336403407
 20
91.4664724073143
 30
0.0
 10
256.1693716403409
 20
91.42380040731463
 30
0.0
 10
256.1693716403409
 20
91.42380040731463
 30
0.0
 10
256.1693716403409
 20
91.42380040731463
 30
0.0
 10
256.0174796403408
 20
91.39357440731445
 30
0.0
 10
256.0174796403408
 20
91.39357440731445
 30
0.0
 10
256.0174796403408
 20
91.39357440731445
 30
0.0
 10
255.8605076403406
 20
91.37427040731474
 30
0.0
 10
255.8605076403406
 20
91.37427040731474
 30
0.0
 10
255.8605076403406
 20
91.37427040731474
 30
0.0
 10
255.7045516403409
 20
91.36868240731485
 30
0.0
 10
255.7045516403409
 20
91.36868240731485
 30
0.0
 10
255.7045516403409
 20
91.36868240731485
 30
0.0
 10
-45.09621835965929
 20
91.36868240731485
 30
0.0
 10
-45.09621835965929
 20
91.36868240731485
 30
0.0
 10
-45.09621835965929
 20
91.36868240731485
 30
0.0
 10
-45.25344435965938
 20
91.37427040731474
 30
0.0
 10
-45.25344435965938
 20
91.37427040731474
 30
0.0
 10
-45.25344435965938
 20
91.37427040731474
 30
0.0
 10
-45.40914635965953
 20
91.39357440731445
 30
0.0
 10
-45.40914635965953
 20
91.39357440731445
 30
0.0
 10
-45.40914635965953
 20
91.39357440731445
 30
0.0
 10
-45.56332435965942
 20
91.42380040731463
 30
0.0
 10
-45.56332435965942
 20
91.42380040731463
 30
0.0
 10
-45.56332435965942
 20
91.42380040731463
 30
0.0
 10
-45.71496235965929
 20
91.4664724073143
 30
0.0
 10
-45.71496235965929
 20
91.4664724073143
 30
0.0
 10
-45.71496235965929
 20
91.4664724073143
 30
0.0
 10
-45.86253635965954
 20
91.5203204073144
 30
0.0
 10
-45.86253635965954
 20
91.5203204073144
 30
0.0
 10
-45.86253635965954
 20
91.5203204073144
 30
0.0
 10
-46.00426835965931
 20
91.58636040731469
 30
0.0
 10
-46.00426835965931
 20
91.58636040731469
 30
0.0
 10
-46.00426835965931
 20
91.58636040731469
 30
0.0
 10
-46.14092035965937
 20
91.66230640731443
 30
0.0
 10
-46.14092035965937
 20
91.66230640731443
 30
0.0
 10
-46.14092035965937
 20
91.66230640731443
 30
0.0
 10
-46.27173035965929
 20
91.75044440731435
 30
0.0
 10
-46.27173035965929
 20
91.75044440731435
 30
0.0
 10
-46.27173035965929
 20
91.75044440731435
 30
0.0
 10
-46.39441235965929
 20
91.84823440731445
 30
0.0
 10
-46.39441235965929
 20
91.84823440731445
 30
0.0
 10
-46.39441235965929
 20
91.84823440731445
 30
0.0
 10
-46.51150635965941
 20
91.9544064073144
 30
0.0
 10
-46.51150635965941
 20
91.9544064073144
 30
0.0
 10
-46.51150635965941
 20
91.9544064073144
 30
0.0
 10
-46.61767835965934
 20
92.0702304073145
 30
0.0
 10
-46.61767835965934
 20
92.0702304073145
 30
0.0
 10
-46.61767835965934
 20
92.0702304073145
 30
0.0
 10
-46.71546835965944
 20
92.1926584073149
 30
0.0
 10
-46.71546835965944
 20
92.1926584073149
 30
0.0
 10
-46.71546835965944
 20
92.1926584073149
 30
0.0
 10
-46.80233635965936
 20
92.32372240731442
 30
0.0
 10
-46.80233635965936
 20
92.32372240731442
 30
0.0
 10
-46.80233635965936
 20
92.32372240731442
 30
0.0
 10
-46.87955235965944
 20
92.46139040731488
 30
0.0
 10
-46.87955235965944
 20
92.46139040731488
 30
0.0
 10
-46.87955235965944
 20
92.46139040731488
 30
0.0
 10
-46.94432235965939
 20
92.6033764073149
 30
0.0
 10
-46.94432235965939
 20
92.6033764073149
 30
0.0
 10
-46.94432235965939
 20
92.6033764073149
 30
0.0
 10
-46.99944035965949
 20
92.74942640731456
 30
0.0
 10
-46.99944035965949
 20
92.74942640731456
 30
0.0
 10
-46.99944035965949
 20
92.74942640731456
 30
0.0
 10
-47.04058835965954
 20
92.90233440731444
 30
0.0
 10
-47.04058835965954
 20
92.90233440731444
 30
0.0
 10
-47.04058835965954
 20
92.90233440731444
 30
0.0
 10
-47.07233835965935
 20
93.0554964073149
 30
0.0
 10
-47.07233835965935
 20
93.0554964073149
 30
0.0
 10
-47.07233835965935
 20
93.0554964073149
 30
0.0
 10
-47.09037235965937
 20
93.21246840731442
 30
0.0
 10
-47.09037235965937
 20
93.21246840731442
 30
0.0
 10
-47.09037235965937
 20
93.21246840731442
 30
0.0
 10
-47.09723035965927
 20
93.36817040731488
 30
0.0
 10
-47.09723035965927
 20
93.36817040731488
 30
0.0
 10
-47.09723035965927
 20
93.36817040731488
 30
0.0
 10
-47.09570635965932
 20
203.6691944073147
 30
0.0
 10
-47.09570635965932
 20
203.6691944073147
 30
0.0
 10
-47.09570635965932
 20
203.6691944073147
 30
0.0
 10
-47.09037235965937
 20
203.8261664073145
 30
0.0
 10
-47.09037235965937
 20
203.8261664073145
 30
0.0
 10
-47.09037235965937
 20
203.8261664073145
 30
0.0
 10
-47.07233835965935
 20
203.9821224073146
 30
0.0
 10
-47.07233835965935
 20
203.9821224073146
 30
0.0
 10
-47.07233835965935
 20
203.9821224073146
 30
0.0
 10
-47.04058835965954
 20
204.1360464073146
 30
0.0
 10
-47.04058835965954
 20
204.1360464073146
 30
0.0
 10
-47.04058835965954
 20
204.1360464073146
 30
0.0
 10
-46.99944035965949
 20
204.2881924073146
 30
0.0
 10
-46.99944035965949
 20
204.2881924073146
 30
0.0
 10
-46.99944035965949
 20
204.2881924073146
 30
0.0
 10
-46.94432235965939
 20
204.4350044073147
 30
0.0
 10
-46.94432235965939
 20
204.4350044073147
 30
0.0
 10
-46.94432235965939
 20
204.4350044073147
 30
0.0
 10
-46.87955235965944
 20
204.5769904073144
 30
0.0
 10
-46.87955235965944
 20
204.5769904073144
 30
0.0
 10
-46.87955235965944
 20
204.5769904073144
 30
0.0
 10
-46.80233635965936
 20
204.7131344073146
 30
0.0
 10
-46.80233635965936
 20
204.7131344073146
 30
0.0
 10
-46.80233635965936
 20
204.7131344073146
 30
0.0
 10
-46.71546835965944
 20
204.8441984073148
 30
0.0
 10
-46.71546835965944
 20
204.8441984073148
 30
0.0
 10
-46.71546835965944
 20
204.8441984073145
 30
0.0
 10
-46.61767835965934
 20
204.9671344073144
 30
0.0
 10
-46.61767835965934
 20
204.9671344073144
 30
0.0
 10
-46.61767835965934
 20
204.9671344073144
 30
0.0
 10
-46.51150635965941
 20
205.0839744073146
 30
0.0
 10
-46.51150635965941
 20
205.0839744073146
 30
0.0
 10
-46.51150635965941
 20
205.0839744073146
 30
0.0
 10
-46.39441235965929
 20
205.1901464073145
 30
0.0
 10
-46.39441235965929
 20
205.1901464073145
 30
0.0
 10
-46.39441235965929
 20
205.1901464073145
 30
0.0
 10
-46.27173035965929
 20
205.2881904073146
 30
0.0
 10
-46.27173035965929
 20
205.2881904073146
 30
0.0
 10
-46.27173035965929
 20
205.2881904073146
 30
0.0
 10
-46.14092035965937
 20
205.3750584073145
 30
0.0
 10
-46.14092035965937
 20
205.3750584073145
 30
0.0
 10
-46.14092035965937
 20
205.3750584073145
 30
0.0
 10
-46.00426835965931
 20
205.4520204073146
 30
0.0
 10
-46.00426835965931
 20
205.4520204073146
 30
0.0
 10
-46.00426835965931
 20
205.4520204073146
 30
0.0
 10
-45.86253635965954
 20
205.5170444073145
 30
0.0
 10
-45.86253635965954
 20
205.5170444073145
 30
0.0
 10
-45.86253635965954
 20
205.5170444073145
 30
0.0
 10
-45.71496235965929
 20
205.5721624073146
 30
0.0
 10
-45.71496235965929
 20
205.5721624073146
 30
0.0
 10
-45.71496235965929
 20
205.5721624073146
 30
0.0
 10
-45.56332435965942
 20
205.6130564073147
 30
0.0
 10
-45.56332435965942
 20
205.6130564073147
 30
0.0
 10
-45.56332435965942
 20
205.6130564073144
 30
0.0
 10
-45.40914635965953
 20
205.6450604073145
 30
0.0
 10
-45.40914635965953
 20
205.6450604073145
 30
0.0
 10
-45.40914635965953
 20
205.6450604073145
 30
0.0
 10
-45.25344435965938
 20
205.6630944073145
 30
0.0
 10
-45.25344435965938
 20
205.6630944073145
 30
0.0
 10
-45.25344435965938
 20
205.6630944073145
 30
0.0
 10
-45.09621835965929
 20
205.6702064073147
 30
0.0
 10
-45.09621835965929
 20
205.6702064073147
 30
0.0
 10
-45.09621835965929
 20
205.6702064073147
 30
0.0
 10
255.7045516403409
 20
205.6681744073145
 30
0.0
 10
255.7045516403409
 20
205.6681744073145
 30
0.0
 10
255.7045516403409
 20
205.6681744073145
 30
0.0
 10
255.8605076403406
 20
205.6630944073145
 30
0.0
 10
255.8605076403406
 20
205.6630944073145
 30
0.0
 10
255.8605076403406
 20
205.6630944073145
 30
0.0
 10
255.7045516403409
 20
205.6681744073145
 30
0.0
 10
255.7045516403409
 20
205.6681744073145
 30
0.0
 10
255.7045516403409
 20
205.6681744073145
 30
0.0
 10
-45.09621835965929
 20
205.6702064073147
 30
0.0
 10
-45.09621835965929
 20
205.6702064073147
 30
0.0
 10
-45.09621835965929
 20
205.6702064073147
 30
0.0
 10
-45.25344435965938
 20
205.6630944073145
 30
0.0
 10
-45.25344435965938
 20
205.6630944073145
 30
0.0
 10
-45.25344435965938
 20
205.6630944073145
 30
0.0
 10
-45.40914635965953
 20
205.6450604073145
 30
0.0
 10
-45.40914635965953
 20
205.6450604073145
 30
0.0
 10
-45.40914635965953
 20
205.6450604073145
 30
0.0
 10
-45.56332435965942
 20
205.6130564073147
 30
0.0
 10
-45.56332435965942
 20
205.6130564073147
 30
0.0
 10
-45.56332435965942
 20
205.6130564073144
 30
0.0
 10
-45.71496235965929
 20
205.5721624073146
 30
0.0
 10
-45.71496235965929
 20
205.5721624073146
 30
0.0
 10
-45.71496235965929
 20
205.5721624073146
 30
0.0
 10
-45.86253635965954
 20
205.5170444073145
 30
0.0
 10
-45.86253635965954
 20
205.5170444073145
 30
0.0
 10
-45.86253635965954
 20
205.5170444073145
 30
0.0
 10
-46.00426835965931
 20
205.4520204073146
 30
0.0
 10
-46.00426835965931
 20
205.4520204073146
 30
0.0
 10
-46.00426835965931
 20
205.4520204073146
 30
0.0
 10
-46.14092035965937
 20
205.3750584073145
 30
0.0
 10
-46.14092035965937
 20
205.3750584073145
 30
0.0
 10
-46.14092035965937
 20
205.3750584073145
 30
0.0
 10
-46.27173035965929
 20
205.2881904073146
 30
0.0
 10
-46.27173035965929
 20
205.2881904073146
 30
0.0
 10
-46.27173035965929
 20
205.2881904073146
 30
0.0
 10
-46.39441235965929
 20
205.1901464073145
 30
0.0
 10
-46.39441235965929
 20
205.1901464073145
 30
0.0
 10
-46.39441235965929
 20
205.1901464073145
 30
0.0
 10
-46.51150635965941
 20
205.0839744073146
 30
0.0
 10
-46.51150635965941
 20
205.0839744073146
 30
0.0
 10
-46.51150635965941
 20
205.0839744073146
 30
0.0
 10
-46.61767835965934
 20
204.9671344073144
 30
0.0
 10
-46.61767835965934
 20
204.9671344073144
 30
0.0
 10
-46.61767835965934
 20
204.9671344073144
 30
0.0
 10
-46.71546835965944
 20
204.8441984073145
 30
0.0
 10
-46.71546835965944
 20
204.8441984073145
 30
0.0
 10
-46.71546835965944
 20
204.8441984073145
 30
0.0
 10
-46.80233635965936
 20
204.7131344073146
 30
0.0
 10
-46.80233635965936
 20
204.7131344073146
 30
0.0
 10
-46.80233635965936
 20
204.7131344073146
 30
0.0
 10
-46.87955235965944
 20
204.5769904073148
 30
0.0
 10
-46.87955235965944
 20
204.5769904073148
 30
0.0
 10
-46.87955235965944
 20
204.5769904073144
 30
0.0
 10
-46.94432235965939
 20
204.4350044073147
 30
0.0
 10
-46.94432235965939
 20
204.4350044073147
 30
0.0
 10
-46.94432235965939
 20
204.4350044073147
 30
0.0
 10
-46.99944035965949
 20
204.2881924073146
 30
0.0
 10
-46.99944035965949
 20
204.2881924073146
 30
0.0
 10
-46.99944035965949
 20
204.2881924073146
 30
0.0
 10
-47.04058835965954
 20
204.1360464073146
 30
0.0
 10
-47.04058835965954
 20
204.1360464073146
 30
0.0
 10
-47.04058835965954
 20
204.1360464073146
 30
0.0
 10
-47.07233835965935
 20
203.9821224073146
 30
0.0
 10
-47.07233835965935
 20
203.9821224073146
 30
0.0
 10
-47.07233835965935
 20
203.9821224073146
 30
0.0
 10
-47.09037235965937
 20
203.8261664073145
 30
0.0
 10
-47.09037235965937
 20
203.8261664073145
 30
0.0
 10
-47.09037235965937
 20
203.8261664073145
 30
0.0
 10
-47.09570635965932
 20
203.6691944073147
 30
0.0
 10
-47.09570635965932
 20
203.6691944073147
 30
0.0
 10
-47.09570635965932
 20
203.6691944073147
 30
0.0
 10
-47.09723035965927
 20
93.36817040731488
 30
0.0
 10
-47.09723035965927
 20
93.36817040731488
 30
0.0
 10
-47.09723035965927
 20
93.36817040731488
 30
0.0
 10
-47.09037235965937
 20
93.21246840731442
 30
0.0
 10
-47.09037235965937
 20
93.21246840731442
 30
0.0
 10
-47.09037235965937
 20
93.21246840731442
 30
0.0
 10
-47.07233835965935
 20
93.0554964073149
 30
0.0
 10
-47.07233835965935
 20
93.0554964073149
 30
0.0
 10
-47.07233835965935
 20
93.0554964073149
 30
0.0
 10
-47.04058835965954
 20
92.90233440731444
 30
0.0
 10
-47.04058835965954
 20
92.90233440731444
 30
0.0
 10
-47.04058835965954
 20
92.90233440731444
 30
0.0
 10
-46.99944035965949
 20
92.74942640731456
 30
0.0
 10
-46.99944035965949
 20
92.74942640731456
 30
0.0
 10
-46.99944035965949
 20
92.74942640731456
 30
0.0
 10
-46.94432235965939
 20
92.6033764073149
 30
0.0
 10
-46.94432235965939
 20
92.6033764073149
 30
0.0
 10
-46.94432235965939
 20
92.6033764073149
 30
0.0
 10
-46.87955235965944
 20
92.46139040731488
 30
0.0
 10
-46.87955235965944
 20
92.46139040731488
 30
0.0
 10
-46.87955235965944
 20
92.46139040731488
 30
0.0
 10
-46.80233635965936
 20
92.32372240731442
 30
0.0
 10
-46.80233635965936
 20
92.32372240731442
 30
0.0
 10
-46.80233635965936
 20
92.32372240731442
 30
0.0
 10
-46.71546835965944
 20
92.1926584073149
 30
0.0
 10
-46.71546835965944
 20
92.1926584073149
 30
0.0
 10
-46.71546835965944
 20
92.1926584073149
 30
0.0
 10
-46.61767835965934
 20
92.0702304073145
 30
0.0
 10
-46.61767835965934
 20
92.0702304073145
 30
0.0
 10
-46.61767835965934
 20
92.0702304073145
 30
0.0
 10
-46.51150635965941
 20
91.9544064073144
 30
0.0
 10
-46.51150635965941
 20
91.9544064073144
 30
0.0
 10
-46.51150635965941
 20
91.9544064073144
 30
0.0
 10
-46.39441235965929
 20
91.84823440731445
 30
0.0
 10
-46.39441235965929
 20
91.84823440731445
 30
0.0
 10
-46.39441235965929
 20
91.84823440731445
 30
0.0
 10
-46.27173035965929
 20
91.75044440731435
 30
0.0
 10
-46.27173035965929
 20
91.75044440731435
 30
0.0
 10
-46.27173035965929
 20
91.75044440731435
 30
0.0
 10
-46.14092035965937
 20
91.66230640731443
 30
0.0
 10
-46.14092035965937
 20
91.66230640731443
 30
0.0
 10
-46.14092035965937
 20
91.66230640731443
 30
0.0
 10
-46.00426835965931
 20
91.58636040731469
 30
0.0
 10
-46.00426835965931
 20
91.58636040731469
 30
0.0
 10
-46.00426835965931
 20
91.58636040731469
 30
0.0
 10
-45.86253635965954
 20
91.5203204073144
 30
0.0
 10
-45.86253635965954
 20
91.5203204073144
 30
0.0
 10
-45.86253635965954
 20
91.5203204073144
 30
0.0
 10
-45.71496235965929
 20
91.4664724073143
 30
0.0
 10
-45.71496235965929
 20
91.4664724073143
 30
0.0
 10
-45.71496235965929
 20
91.4664724073143
 30
0.0
 10
-45.56332435965942
 20
91.42380040731463
 30
0.0
 10
-45.56332435965942
 20
91.42380040731463
 30
0.0
 10
-45.56332435965942
 20
91.42380040731463
 30
0.0
 10
-45.40914635965953
 20
91.39357440731445
 30
0.0
 10
-45.40914635965953
 20
91.39357440731445
 30
0.0
 10
-45.40914635965953
 20
91.39357440731445
 30
0.0
 10
-45.25344435965938
 20
91.37427040731474
 30
0.0
 10
-45.25344435965938
 20
91.37427040731474
 30
0.0
 10
-45.25344435965938
 20
91.37427040731474
 30
0.0
 10
-45.09621835965929
 20
91.36868240731485
 30
0.0
 10
-45.09621835965929
 20
91.36868240731485
 30
0.0
 10
-45.09621835965929
 20
91.36868240731485
 30
0.0
 10
255.7045516403409
 20
91.36868240731485
 30
0.0
 10
255.7045516403409
 20
91.36868240731485
 30
0.0
 10
255.7045516403409
 20
91.36868240731485
 30
0.0
 10
255.8605076403406
 20
91.37427040731474
 30
0.0
 10
255.8605076403406
 20
91.37427040731474
 30
0.0
 10
255.8605076403406
 20
91.37427040731474
 30
0.0
 10
256.0174796403408
 20
91.39357440731445
 30
0.0
 10
256.0174796403408
 20
91.39357440731445
 30
0.0
 10
256.0174796403408
 20
91.39357440731445
 30
0.0
 10
256.1693716403403
 20
91.42380040731463
 30
0.0
 10
256.1693716403403
 20
91.42380040731463
 30
0.0
 10
256.1693716403409
 20
91.42380040731463
 30
0.0
 10
256.3225336403407
 20
91.4664724073143
 30
0.0
 10
256.3225336403407
 20
91.4664724073143
 30
0.0
 10
256.3225336403407
 20
91.4664724073143
 30
0.0
 10
256.4683296403405
 20
91.5203204073144
 30
0.0
 10
256.4683296403405
 20
91.5203204073144
 30
0.0
 10
256.4683296403405
 20
91.5203204073144
 30
0.0
 10
256.6103156403405
 20
91.58636040731469
 30
0.0
 10
256.6103156403405
 20
91.58636040731469
 30
0.0
 10
256.6103156403405
 20
91.58636040731469
 30
0.0
 10
256.7484916403408
 20
91.66230640731443
 30
0.0
 10
256.7484916403408
 20
91.66230640731443
 30
0.0
 10
256.7484916403408
 20
91.66230640731443
 30
0.0
 10
256.8795556403404
 20
91.75044440731435
 30
0.0
 10
256.8795556403404
 20
91.75044440731435
 30
0.0
 10
256.8795556403404
 20
91.75044440731435
 30
0.0
 10
257.0024916403406
 20
91.84823440731445
 30
0.0
 10
257.0024916403406
 20
91.84823440731445
 30
0.0
 10
257.0024916403406
 20
91.84823440731445
 30
0.0
 10
257.1183156403407
 20
91.9544064073144
 30
0.0
 10
257.1183156403407
 20
91.9544064073144
 30
0.0
 10
257.1183156403407
 20
91.9544064073144
 30
0.0
 10
257.2244876403407
 20
92.0702304073145
 30
0.0
 10
257.2244876403407
 20
92.0702304073145
 30
0.0
 10
257.2244876403407
 20
92.0702304073145
 30
0.0
 10
257.3215156403403
 20
92.1926584073149
 30
0.0
 10
257.3215156403403
 20
92.1926584073149
 30
0.0
 10
257.3215156403403
 20
92.1926584073149
 30
0.0
 10
257.4104156403407
 20
92.32372240731442
 30
0.0
 10
257.4104156403407
 20
92.32372240731442
 30
0.0
 10
257.4104156403407
 20
92.32372240731442
 30
0.0
 10
257.4853456403407
 20
92.46139040731488
 30
0.0
 10
257.4853456403407
 20
92.46139040731488
 30
0.0
 10
257.4853456403407
 20
92.46139040731488
 30
0.0
 10
257.5513856403403
 20
92.6033764073149
 30
0.0
 10
257.5513856403403
 20
92.6033764073149
 30
0.0
 10
257.5513856403403
 20
92.6033764073149
 30
0.0
 10
257.6054876403404
 20
92.74942640731456
 30
0.0
 10
257.6054876403404
 20
92.74942640731456
 30
0.0
 10
257.6054876403404
 20
92.74942640731456
 30
0.0
 10
257.6484136403406
 20
92.90233440731444
 30
0.0
 10
257.6484136403406
 20
92.90233440731444
 30
0.0
 10
257.6484136403406
 20
92.90233440731444
 30
0.0
 10
257.6783856403409
 20
93.0554964073149
 30
0.0
 10
257.6783856403409
 20
93.0554964073149
 30
0.0
 10
257.6783856403409
 20
93.0554964073149
 30
0.0
 10
257.6984516403404
 20
93.21246840731442
 30
0.0
 10
257.6984516403404
 20
93.21246840731442
 30
0.0
 10
257.6984516403404
 20
93.21246840731442
 30
0.0
 10
257.7055636403405
 20
93.36817040731488
 30
0.0
 10
257.7055636403405
 20
93.36817040731488
 30
0.0
 10
257.7055636403405
 20
93.36817040731488
 30
0.0
 10
257.7055636403405
 20
203.6691944073147
 30
0.0
 10
257.7055636403405
 20
203.6691944073147
 30
0.0
 10
257.7055636403405
 20
203.6691944073147
 30
0.0
 10
257.6984516403404
 20
203.8261664073145
 30
0.0
 10
257.6984516403404
 20
203.8261664073145
 30
0.0
 10
257.6984516403404
 20
203.8261664073145
 30
0.0
 10
257.6783856403409
 20
203.9821224073146
 30
0.0
 10
257.6783856403409
 20
203.9821224073146
 30
0.0
 10
257.6783856403409
 20
203.9821224073146
 30
0.0
 10
257.6484136403406
 20
204.1360464073146
 30
0.0
 10
257.6484136403406
 20
204.1360464073146
 30
0.0
 10
257.6484136403406
 20
204.1360464073146
 30
0.0
 10
257.6054876403404
 20
204.2881924073146
 30
0.0
 10
257.6054876403404
 20
204.2881924073146
 30
0.0
 10
257.6054876403404
 20
204.2881924073146
 30
0.0
 10
257.5513856403403
 20
204.4350044073147
 30
0.0
 10
257.5513856403403
 20
204.4350044073147
 30
0.0
 10
257.5513856403403
 20
204.4350044073147
 30
0.0
 10
257.4853456403407
 20
204.5769904073144
 30
0.0
 10
257.4853456403407
 20
204.5769904073144
 30
0.0
 10
257.4853456403407
 20
204.5769904073144
 30
0.0
 10
257.4104156403407
 20
204.7131344073146
 30
0.0
 10
257.4104156403407
 20
204.7131344073146
 30
0.0
 10
257.4104156403407
 20
204.7131344073146
 30
0.0
 10
257.3215156403403
 20
204.8441984073148
 30
0.0
 10
257.3215156403403
 20
204.8441984073148
 30
0.0
 10
257.3215156403403
 20
204.8441984073145
 30
0.0
 10
257.2244876403407
 20
204.9671344073144
 30
0.0
 10
257.2244876403407
 20
204.9671344073144
 30
0.0
 10
257.2244876403407
 20
204.9671344073144
 30
0.0
 10
257.1183156403407
 20
205.0839744073146
 30
0.0
 10
257.1183156403407
 20
205.0839744073146
 30
0.0
 10
257.1183156403407
 20
205.0839744073146
 30
0.0
 10
257.0024916403406
 20
205.1901464073145
 30
0.0
 10
257.0024916403406
 20
205.1901464073145
 30
0.0
 10
257.0024916403406
 20
205.1901464073145
 30
0.0
 10
256.8795556403404
 20
205.2881904073146
 30
0.0
 10
256.8795556403404
 20
205.2881904073146
 30
0.0
 10
256.8795556403404
 20
205.2881904073146
 30
0.0
 10
256.7484916403408
 20
205.3750584073145
 30
0.0
 10
256.7484916403408
 20
205.3750584073145
 30
0.0
 10
256.7484916403408
 20
205.3750584073145
 30
0.0
 10
256.6103156403405
 20
205.4520204073146
 30
0.0
 10
256.6103156403405
 20
205.4520204073146
 30
0.0
 10
256.6103156403405
 20
205.4520204073146
 30
0.0
 10
256.4683296403405
 20
205.5170444073145
 30
0.0
 10
256.4683296403405
 20
205.5170444073145
 30
0.0
 10
256.4683296403405
 20
205.5170444073145
 30
0.0
 10
256.3225336403407
 20
205.5721624073146
 30
0.0
 10
256.3225336403407
 20
205.5721624073146
 30
0.0
 10
256.3225336403407
 20
205.5721624073146
 30
0.0
 10
256.1693716403409
 20
205.6130564073147
 30
0.0
 10
256.1693716403409
 20
205.6130564073144
 30
0.0
  0
ENDBLK
  5
46A
330
467
100
AcDbEntity
  8
0
100
AcDbBlockEnd
  0
BLOCK
  5
46E
330
46C
100
AcDbEntity
  8
0
100
AcDbBlockBegin
  2
BLOCK_88
 70
     0
 10
0.0
 20
0.0
 30
0.0
  3
BLOCK_88
  1

  0
SPLINE
  5
470
330
46C
100
AcDbEntity
  8
0
 62
     7
100
AcDbSpline
210
0.0
220
0.0
230
1.0
 70
     8
 71
     3
 72
    11
 73
     7
 74
     0
 42
0.0000000001
 43
0.0000000001
 12
1.0
 22
0.0
 32
0.0
 13
1.0
 23
0.0
 33
0.0
 40
0.0
 40
0.0
 40
0.0
 40
0.0
 40
1.0
 40
1.0
 40
1.0
 40
2.0
 40
2.0
 40
2.0
 40
2.0
 10
191.0277696403406
 20
149.8158604073147
 30
0.0
 10
190.3098149295334
 20
149.8158604073147
 30
0.0
 10
189.7277976403407
 20
149.2338431181217
 30
0.0
 10
189.7277976403407
 20
148.5158884073145
 30
0.0
 10
189.7277976403407
 20
147.7979336965077
 30
0.0
 10
190.3098149295334
 20
147.2159164073143
 30
0.0
 10
191.0277696403406
 20
147.2159164073143
 30
0.0
  0
ENDBLK
  5
46F
330
46C
100
AcDbEntity
  8
0
100
AcDbBlockEnd
  0
BLOCK
  5
473
330
471
100
AcDbEntity
  8
0
100
AcDbBlockBegin
  2
BLOCK_89
 70
     0
 10
0.0
 20
0.0
 30
0.0
  3
BLOCK_89
  1

  0
SPLINE
  5
475
330
471
100
AcDbEntity
  8
0
 62
     7
100
AcDbSpline
210
0.0
220
0.0
230
1.0
 70
     8
 71
     3
 72
    11
 73
     7
 74
     0
 42
0.0000000001
 43
0.0000000001
 12
1.0
 22
0.0
 32
0.0
 13
1.0
 23
0.0
 33
0.0
 40
0.0
 40
0.0
 40
0.0
 40
0.0
 40
1.0
 40
1.0
 40
1.0
 40
2.0
 40
2.0
 40
2.0
 40
2.0
 10
191.0328496403406
 20
147.2159164073143
 30
0.0
 10
191.7508043511477
 20
147.2159164073143
 30
0.0
 10
192.3328216403405
 20
147.7979336965077
 30
0.0
 10
192.3328216403405
 20
148.5158884073145
 30
0.0
 10
192.3328216403405
 20
149.2338431181217
 30
0.0
 10
191.7508043511477
 20
149.8158604073147
 30
0.0
 10
191.0328496403406
 20
149.8158604073147
 30
0.0
  0
ENDBLK
  5
474
330
471
100
AcDbEntity
  8
0
100
AcDbBlockEnd
  0
BLOCK
  5
478
330
476
100
AcDbEntity
  8
0
100
AcDbBlockBegin
  2
BLOCK_90
 70
     0
 10
0.0
 20
0.0
 30
0.0
  3
BLOCK_90
  1

  0
SPLINE
  5
47A
330
476
100
AcDbEntity
  8
0
 62
     7
100
AcDbSpline
210
0.0
220
0.0
230
1.0
 70
    27
 71
     3
 72
    11
 73
     7
 74
     0
 42
0.0000000001
 43
0.0000000001
 12
1.0
 22
0.0
 32
0.0
 13
1.0
 23
0.0
 33
0.0
 40
0.0
 40
0.0
 40
0.0
 40
0.0
 40
1.0
 40
1.0
 40
1.0
 40
2.0
 40
2.0
 40
2.0
 40
2.0
 10
191.0328496403406
 20
149.8158604073147
 30
0.0
 10
191.0328496403406
 20
149.8158604073147
 30
0.0
 10
191.0277696403406
 20
149.8158604073147
 30
0.0
 10
191.0277696403406
 20
149.8158604073147
 30
0.0
 10
191.0277696403406
 20
149.8158604073147
 30
0.0
 10
191.0328496403406
 20
149.8158604073147
 30
0.0
 10
191.0328496403406
 20
149.8158604073147
 30
0.0
  0
ENDBLK
  5
479
330
476
100
AcDbEntity
  8
0
100
AcDbBlockEnd
  0
BLOCK
  5
47D
330
47B
100
AcDbEntity
  8
0
100
AcDbBlockBegin
  2
BLOCK_91
 70
     0
 10
0.0
 20
0.0
 30
0.0
  3
BLOCK_91
  1

  0
SPLINE
  5
47F
330
47B
100
AcDbEntity
  8
0
 62
     7
100
AcDbSpline
210
0.0
220
0.0
230
1.0
 70
    27
 71
     3
 72
    11
 73
     7
 74
     0
 42
0.0000000001
 43
0.0000000001
 12
1.0
 22
0.0
 32
0.0
 13
1.0
 23
0.0
 33
0.0
 40
0.0
 40
0.0
 40
0.0
 40
0.0
 40
1.0
 40
1.0
 40
1.0
 40
2.0
 40
2.0
 40
2.0
 40
2.0
 10
191.0328496403406
 20
147.2159164073143
 30
0.0
 10
191.0328496403406
 20
147.2159164073143
 30
0.0
 10
191.0277696403406
 20
147.2159164073143
 30
0.0
 10
191.0277696403406
 20
147.2159164073143
 30
0.0
 10
191.0277696403406
 20
147.2159164073143
 30
0.0
 10
191.0328496403406
 20
147.2159164073143
 30
0.0
 10
191.0328496403406
 20
147.2159164073143
 30
0.0
  0
ENDBLK
  5
47E
330
47B
100
AcDbEntity
  8
0
100
AcDbBlockEnd
  0
BLOCK
  5
482
330
480
100
AcDbEntity
  8
0
100
AcDbBlockBegin
  2
BLOCK_92
 70
     0
 10
0.0
 20
0.0
 30
0.0
  3
BLOCK_92
  1

  0
SPLINE
  5
484
330
480
100
AcDbEntity
  8
0
 62
     7
100
AcDbSpline
210
0.0
220
0.0
230
1.0
 70
     8
 71
     3
 72
    11
 73
     7
 74
     0
 42
0.0000000001
 43
0.0000000001
 12
1.0
 22
0.0
 32
0.0
 13
1.0
 23
0.0
 33
0.0
 40
0.0
 40
0.0
 40
0.0
 40
0.0
 40
1.0
 40
1.0
 40
1.0
 40
2.0
 40
2.0
 40
2.0
 40
2.0
 10
19.57827764034063
 20
149.8158604073147
 30
0.0
 10
18.86032292953346
 20
149.8158604073147
 30
0.0
 10
18.27830564034075
 20
149.2338431181217
 30
0.0
 10
18.27830564034075
 20
148.5158884073145
 30
0.0
 10
18.27830564034075
 20
147.7979336965077
 30
0.0
 10
18.86032292953346
 20
147.2159164073143
 30
0.0
 10
19.57827764034063
 20
147.2159164073143
 30
0.0
  0
ENDBLK
  5
483
330
480
100
AcDbEntity
  8
0
100
AcDbBlockEnd
  0
BLOCK
  5
487
330
485
100
AcDbEntity
  8
0
100
AcDbBlockBegin
  2
BLOCK_93
 70
     0
 10
0.0
 20
0.0
 30
0.0
  3
BLOCK_93
  1

  0
SPLINE
  5
489
330
485
100
AcDbEntity
  8
0
 62
     7
100
AcDbSpline
210
0.0
220
0.0
230
1.0
 70
     8
 71
     3
 72
    11
 73
     7
 74
     0
 42
0.0000000001
 43
0.0000000001
 12
1.0
 22
0.0
 32
0.0
 13
1.0
 23
0.0
 33
0.0
 40
0.0
 40
0.0
 40
0.0
 40
0.0
 40
1.0
 40
1.0
 40
1.0
 40
2.0
 40
2.0
 40
2.0
 40
2.0
 10
19.58335764034065
 20
147.2159164073143
 30
0.0
 10
20.3013123511475
 20
147.2159164073143
 30
0.0
 10
20.88332964034054
 20
147.7979336965077
 30
0.0
 10
20.88332964034054
 20
148.5158884073145
 30
0.0
 10
20.88332964034054
 20
149.2338431181217
 30
0.0
 10
20.3013123511475
 20
149.8158604073147
 30
0.0
 10
19.58335764034065
 20
149.8158604073147
 30
0.0
  0
ENDBLK
  5
488
330
485
100
AcDbEntity
  8
0
100
AcDbBlockEnd
  0
BLOCK
  5
48C
330
48A
100
AcDbEntity
  8
0
100
AcDbBlockBegin
  2
BLOCK_94
 70
     0
 10
0.0
 20
0.0
 30
0.0
  3
BLOCK_94
  1

  0
SPLINE
  5
48E
330
48A
100
AcDbEntity
  8
0
 62
     7
100
AcDbSpline
210
0.0
220
0.0
230
1.0
 70
    27
 71
     3
 72
    11
 73
     7
 74
     0
 42
0.0000000001
 43
0.0000000001
 12
1.0
 22
0.0
 32
0.0
 13
1.0
 23
0.0
 33
0.0
 40
0.0
 40
0.0
 40
0.0
 40
0.0
 40
1.0
 40
1.0
 40
1.0
 40
2.0
 40
2.0
 40
2.0
 40
2.0
 10
19.58335764034065
 20
149.8158604073147
 30
0.0
 10
19.58335764034065
 20
149.8158604073147
 30
0.0
 10
19.57827764034063
 20
149.8158604073147
 30
0.0
 10
19.57827764034063
 20
149.8158604073147
 30
0.0
 10
19.57827764034063
 20
149.8158604073147
 30
0.0
 10
19.58335764034065
 20
149.8158604073147
 30
0.0
 10
19.58335764034065
 20
149.8158604073147
 30
0.0
  0
ENDBLK
  5
48D
330
48A
100
AcDbEntity
  8
0
100
AcDbBlockEnd
  0
BLOCK
  5
491
330
48F
100
AcDbEntity
  8
0
100
AcDbBlockBegin
  2
BLOCK_95
 70
     0
 10
0.0
 20
0.0
 30
0.0
  3
BLOCK_95
  1

  0
SPLINE
  5
493
330
48F
100
AcDbEntity
  8
0
 62
     7
100
AcDbSpline
210
0.0
220
0.0
230
1.0
 70
    27
 71
     3
 72
    11
 73
     7
 74
     0
 42
0.0000000001
 43
0.0000000001
 12
1.0
 22
0.0
 32
0.0
 13
1.0
 23
0.0
 33
0.0
 40
0.0
 40
0.0
 40
0.0
 40
0.0
 40
1.0
 40
1.0
 40
1.0
 40
2.0
 40
2.0
 40
2.0
 40
2.0
 10
19.58335764034065
 20
147.2159164073143
 30
0.0
 10
19.58335764034065
 20
147.2159164073143
 30
0.0
 10
19.57827764034063
 20
147.2159164073143
 30
0.0
 10
19.57827764034063
 20
147.2159164073143
 30
0.0
 10
19.57827764034063
 20
147.2159164073143
 30
0.0
 10
19.58335764034065
 20
147.2159164073143
 30
0.0
 10
19.58335764034065
 20
147.2159164073143
 30
0.0
  0
ENDBLK
  5
492
330
48F
100
AcDbEntity
  8
0
100
AcDbBlockEnd
  0
BLOCK
  5
496
330
494
100
AcDbEntity
  8
0
100
AcDbBlockBegin
  2
BLOCK_96
 70
     0
 10
0.0
 20
0.0
 30
0.0
  3
BLOCK_96
  1

  0
SPLINE
  5
498
330
494
100
AcDbEntity
  8
0
 62
     7
100
AcDbSpline
210
0.0
220
0.0
230
1.0
 70
     8
 71
     3
 72
    11
 73
     7
 74
     0
 42
0.0000000001
 43
0.0000000001
 12
1.0
 22
0.0
 32
0.0
 13
1.0
 23
0.0
 33
0.0
 40
0.0
 40
0.0
 40
0.0
 40
0.0
 40
1.0
 40
1.0
 40
1.0
 40
2.0
 40
2.0
 40
2.0
 40
2.0
 10
95.77802364034049
 20
149.8158604073147
 30
0.0
 10
95.06006892953364
 20
149.8158604073147
 30
0.0
 10
94.47805164034061
 20
149.2338431181217
 30
0.0
 10
94.47805164034061
 20
148.5158884073145
 30
0.0
 10
94.47805164034061
 20
147.7979336965077
 30
0.0
 10
95.06006892953364
 20
147.2159164073143
 30
0.0
 10
95.77802364034049
 20
147.2159164073143
 30
0.0
  0
ENDBLK
  5
497
330
494
100
AcDbEntity
  8
0
100
AcDbBlockEnd
  0
BLOCK
  5
49B
330
499
100
AcDbEntity
  8
0
100
AcDbBlockBegin
  2
BLOCK_97
 70
     0
 10
0.0
 20
0.0
 30
0.0
  3
BLOCK_97
  1

  0
SPLINE
  5
49D
330
499
100
AcDbEntity
  8
0
 62
     7
100
AcDbSpline
210
0.0
220
0.0
230
1.0
 70
     8
 71
     3
 72
    11
 73
     7
 74
     0
 42
0.0000000001
 43
0.0000000001
 12
1.0
 22
0.0
 32
0.0
 13
1.0
 23
0.0
 33
0.0
 40
0.0
 40
0.0
 40
0.0
 40
0.0
 40
1.0
 40
1.0
 40
1.0
 40
2.0
 40
2.0
 40
2.0
 40
2.0
 10
95.78310364034051
 20
147.2159164073143
 30
0.0
 10
96.50105835114769
 20
147.2159164073143
 30
0.0
 10
97.08307564034072
 20
147.7979336965077
 30
0.0
 10
97.08307564034072
 20
148.5158884073145
 30
0.0
 10
97.08307564034072
 20
149.2338431181217
 30
0.0
 10
96.50105835114769
 20
149.8158604073147
 30
0.0
 10
95.78310364034051
 20
149.8158604073147
 30
0.0
  0
ENDBLK
  5
49C
330
499
100
AcDbEntity
  8
0
100
AcDbBlockEnd
  0
BLOCK
  5
4A0
330
49E
100
AcDbEntity
  8
0
100
AcDbBlockBegin
  2
BLOCK_98
 70
     0
 10
0.0
 20
0.0
 30
0.0
  3
BLOCK_98
  1

  0
SPLINE
  5
4A2
330
49E
100
AcDbEntity
  8
0
 62
     7
100
AcDbSpline
210
0.0
220
0.0
230
1.0
 70
    27
 71
     3
 72
    11
 73
     7
 74
     0
 42
0.0000000001
 43
0.0000000001
 12
1.0
 22
0.0
 32
0.0
 13
1.0
 23
0.0
 33
0.0
 40
0.0
 40
0.0
 40
0.0
 40
0.0
 40
1.0
 40
1.0
 40
1.0
 40
2.0
 40
2.0
 40
2.0
 40
2.0
 10
95.78310364034051
 20
149.8158604073147
 30
0.0
 10
95.78310364034051
 20
149.8158604073147
 30
0.0
 10
95.77802364034049
 20
149.8158604073147
 30
0.0
 10
95.77802364034049
 20
149.8158604073147
 30
0.0
 10
95.77802364034049
 20
149.8158604073147
 30
0.0
 10
95.78310364034051
 20
149.8158604073147
 30
0.0
 10
95.78310364034051
 20
149.8158604073147
 30
0.0
  0
ENDBLK
  5
4A1
330
49E
100
AcDbEntity
  8
0
100
AcDbBlockEnd
  0
BLOCK
  5
4A5
330
4A3
100
AcDbEntity
  8
0
100
AcDbBlockBegin
  2
BLOCK_99
 70
     0
 10
0.0
 20
0.0
 30
0.0
  3
BLOCK_99
  1

  0
SPLINE
  5
4A7
330
4A3
100
AcDbEntity
  8
0
 62
     7
100
AcDbSpline
210
0.0
220
0.0
230
1.0
 70
    27
 71
     3
 72
    11
 73
     7
 74
     0
 42
0.0000000001
 43
0.0000000001
 12
1.0
 22
0.0
 32
0.0
 13
1.0
 23
0.0
 33
0.0
 40
0.0
 40
0.0
 40
0.0
 40
0.0
 40
1.0
 40
1.0
 40
1.0
 40
2.0
 40
2.0
 40
2.0
 40
2.0
 10
95.78310364034051
 20
147.2159164073143
 30
0.0
 10
95.78310364034051
 20
147.2159164073143
 30
0.0
 10
95.77802364034049
 20
147.2159164073143
 30
0.0
 10
95.77802364034049
 20
147.2159164073143
 30
0.0
 10
95.77802364034049
 20
147.2159164073143
 30
0.0
 10
95.78310364034051
 20
147.2159164073143
 30
0.0
 10
95.78310364034051
 20
147.2159164073143
 30
0.0
  0
ENDBLK
  5
4A6
330
4A3
100
AcDbEntity
  8
0
100
AcDbBlockEnd
  0
BLOCK
  5
4AA
330
4A8
100
AcDbEntity
  8
0
100
AcDbBlockBegin
  2
BLOCK_100
 70
     0
 10
0.0
 20
0.0
 30
0.0
  3
BLOCK_100
  1

  0
SPLINE
  5
4AC
330
4A8
100
AcDbEntity
  8
0
 62
     7
100
AcDbSpline
210
0.0
220
0.0
230
1.0
 70
     8
 71
     3
 72
    11
 73
     7
 74
     0
 42
0.0000000001
 43
0.0000000001
 12
1.0
 22
0.0
 32
0.0
 13
1.0
 23
0.0
 33
0.0
 40
0.0
 40
0.0
 40
0.0
 40
0.0
 40
1.0
 40
1.0
 40
1.0
 40
2.0
 40
2.0
 40
2.0
 40
2.0
 10
248.1777696403405
 20
111.7158604073143
 30
0.0
 10
247.4598149295333
 20
111.7158604073143
 30
0.0
 10
246.8777976403406
 20
111.1338431181216
 30
0.0
 10
246.8777976403406
 20
110.4158884073145
 30
0.0
 10
246.8777976403406
 20
109.6979336965073
 30
0.0
 10
247.4598149295333
 20
109.1159164073146
 30
0.0
 10
248.1777696403405
 20
109.1159164073146
 30
0.0
  0
ENDBLK
  5
4AB
330
4A8
100
AcDbEntity
  8
0
100
AcDbBlockEnd
  0
BLOCK
  5
4AF
330
4AD
100
AcDbEntity
  8
0
100
AcDbBlockBegin
  2
BLOCK_101
 70
     0
 10
0.0
 20
0.0
 30
0.0
  3
BLOCK_101
  1

  0
SPLINE
  5
4B1
330
4AD
100
AcDbEntity
  8
0
 62
     7
100
AcDbSpline
210
0.0
220
0.0
230
1.0
 70
     8
 71
     3
 72
    11
 73
     7
 74
     0
 42
0.0000000001
 43
0.0000000001
 12
1.0
 22
0.0
 32
0.0
 13
1.0
 23
0.0
 33
0.0
 40
0.0
 40
0.0
 40
0.0
 40
0.0
 40
1.0
 40
1.0
 40
1.0
 40
2.0
 40
2.0
 40
2.0
 40
2.0
 10
248.1828496403405
 20
109.1159164073146
 30
0.0
 10
248.9008043511477
 20
109.1159164073146
 30
0.0
 10
249.4828216403404
 20
109.6979336965073
 30
0.0
 10
249.4828216403404
 20
110.4158884073145
 30
0.0
 10
249.4828216403404
 20
111.1338431181216
 30
0.0
 10
248.9008043511477
 20
111.7158604073143
 30
0.0
 10
248.1828496403405
 20
111.7158604073143
 30
0.0
  0
ENDBLK
  5
4B0
330
4AD
100
AcDbEntity
  8
0
100
AcDbBlockEnd
  0
BLOCK
  5
4B4
330
4B2
100
AcDbEntity
  8
0
100
AcDbBlockBegin
  2
BLOCK_102
 70
     0
 10
0.0
 20
0.0
 30
0.0
  3
BLOCK_102
  1

  0
SPLINE
  5
4B6
330
4B2
100
AcDbEntity
  8
0
 62
     7
100
AcDbSpline
210
0.0
220
0.0
230
1.0
 70
    27
 71
     3
 72
    11
 73
     7
 74
     0
 42
0.0000000001
 43
0.0000000001
 12
1.0
 22
0.0
 32
0.0
 13
1.0
 23
0.0
 33
0.0
 40
0.0
 40
0.0
 40
0.0
 40
0.0
 40
1.0
 40
1.0
 40
1.0
 40
2.0
 40
2.0
 40
2.0
 40
2.0
 10
248.1828496403405
 20
111.7158604073143
 30
0.0
 10
248.1828496403405
 20
111.7158604073143
 30
0.0
 10
248.1777696403405
 20
111.7158604073143
 30
0.0
 10
248.1777696403405
 20
111.7158604073143
 30
0.0
 10
248.1777696403405
 20
111.7158604073143
 30
0.0
 10
248.1828496403405
 20
111.7158604073143
 30
0.0
 10
248.1828496403405
 20
111.7158604073143
 30
0.0
  0
ENDBLK
  5
4B5
330
4B2
100
AcDbEntity
  8
0
100
AcDbBlockEnd
  0
BLOCK
  5
4B9
330
4B7
100
AcDbEntity
  8
0
100
AcDbBlockBegin
  2
BLOCK_103
 70
     0
 10
0.0
 20
0.0
 30
0.0
  3
BLOCK_103
  1

  0
SPLINE
  5
4BB
330
4B7
100
AcDbEntity
  8
0
 62
     7
100
AcDbSpline
210
0.0
220
0.0
230
1.0
 70
    27
 71
     3
 72
    11
 73
     7
 74
     0
 42
0.0000000001
 43
0.0000000001
 12
1.0
 22
0.0
 32
0.0
 13
1.0
 23
0.0
 33
0.0
 40
0.0
 40
0.0
 40
0.0
 40
0.0
 40
1.0
 40
1.0
 40
1.0
 40
2.0
 40
2.0
 40
2.0
 40
2.0
 10
248.1828496403405
 20
109.1159164073146
 30
0.0
 10
248.1828496403405
 20
109.1159164073146
 30
0.0
 10
248.1777696403405
 20
109.1159164073146
 30
0.0
 10
248.1777696403405
 20
109.1159164073146
 30
0.0
 10
248.1777696403405
 20
109.1159164073146
 30
0.0
 10
248.1828496403405
 20
109.1159164073146
 30
0.0
 10
248.1828496403405
 20
109.1159164073146
 30
0.0
  0
ENDBLK
  5
4BA
330
4B7
100
AcDbEntity
  8
0
100
AcDbBlockEnd
  0
BLOCK
  5
4BE
330
4BC
100
AcDbEntity
  8
0
100
AcDbBlockBegin
  2
BLOCK_104
 70
     0
 10
0.0
 20
0.0
 30
0.0
  3
BLOCK_104
  1

  0
SPLINE
  5
4C0
330
4BC
100
AcDbEntity
  8
0
 62
     7
100
AcDbSpline
210
0.0
220
0.0
230
1.0
 70
     8
 71
     3
 72
    11
 73
     7
 74
     0
 42
0.0000000001
 43
0.0000000001
 12
1.0
 22
0.0
 32
0.0
 13
1.0
 23
0.0
 33
0.0
 40
0.0
 40
0.0
 40
0.0
 40
0.0
 40
1.0
 40
1.0
 40
1.0
 40
2.0
 40
2.0
 40
2.0
 40
2.0
 10
238.6527696403404
 20
204.5843564073145
 30
0.0
 10
237.9348149295332
 20
204.5843564073145
 30
0.0
 10
237.3527976403405
 20
204.0023391181218
 30
0.0
 10
237.3527976403405
 20
203.2843844073146
 30
0.0
 10
237.3527976403405
 20
202.5664296965075
 30
0.0
 10
237.9348149295332
 20
201.9844124073147
 30
0.0
 10
238.6527696403404
 20
201.9844124073147
 30
0.0
  0
ENDBLK
  5
4BF
330
4BC
100
AcDbEntity
  8
0
100
AcDbBlockEnd
  0
BLOCK
  5
4C3
330
4C1
100
AcDbEntity
  8
0
100
AcDbBlockBegin
  2
BLOCK_105
 70
     0
 10
0.0
 20
0.0
 30
0.0
  3
BLOCK_105
  1

  0
SPLINE
  5
4C5
330
4C1
100
AcDbEntity
  8
0
 62
     7
100
AcDbSpline
210
0.0
220
0.0
230
1.0
 70
     8
 71
     3
 72
    11
 73
     7
 74
     0
 42
0.0000000001
 43
0.0000000001
 12
1.0
 22
0.0
 32
0.0
 13
1.0
 23
0.0
 33
0.0
 40
0.0
 40
0.0
 40
0.0
 40
0.0
 40
1.0
 40
1.0
 40
1.0
 40
2.0
 40
2.0
 40
2.0
 40
2.0
 10
238.6578496403404
 20
201.9844124073147
 30
0.0
 10
239.3758043511476
 20
201.9844124073147
 30
0.0
 10
239.9578216403409
 20
202.5664296965075
 30
0.0
 10
239.9578216403409
 20
203.2843844073146
 30
0.0
 10
239.9578216403409
 20
204.0023391181218
 30
0.0
 10
239.3758043511476
 20
204.5843564073145
 30
0.0
 10
238.6578496403404
 20
204.5843564073145
 30
0.0
  0
ENDBLK
  5
4C4
330
4C1
100
AcDbEntity
  8
0
100
AcDbBlockEnd
  0
BLOCK
  5
4C8
330
4C6
100
AcDbEntity
  8
0
100
AcDbBlockBegin
  2
BLOCK_106
 70
     0
 10
0.0
 20
0.0
 30
0.0
  3
BLOCK_106
  1

  0
SPLINE
  5
4CA
330
4C6
100
AcDbEntity
  8
0
 62
     7
100
AcDbSpline
210
0.0
220
0.0
230
1.0
 70
    27
 71
     3
 72
    11
 73
     7
 74
     0
 42
0.0000000001
 43
0.0000000001
 12
1.0
 22
0.0
 32
0.0
 13
1.0
 23
0.0
 33
0.0
 40
0.0
 40
0.0
 40
0.0
 40
0.0
 40
1.0
 40
1.0
 40
1.0
 40
2.0
 40
2.0
 40
2.0
 40
2.0
 10
238.6578496403404
 20
204.5843564073145
 30
0.0
 10
238.6578496403404
 20
204.5843564073145
 30
0.0
 10
238.6527696403404
 20
204.5843564073145
 30
0.0
 10
238.6527696403404
 20
204.5843564073145
 30
0.0
 10
238.6527696403404
 20
204.5843564073145
 30
0.0
 10
238.6578496403404
 20
204.5843564073145
 30
0.0
 10
238.6578496403404
 20
204.5843564073145
 30
0.0
  0
ENDBLK
  5
4C9
330
4C6
100
AcDbEntity
  8
0
100
AcDbBlockEnd
  0
BLOCK
  5
4CD
330
4CB
100
AcDbEntity
  8
0
100
AcDbBlockBegin
  2
BLOCK_107
 70
     0
 10
0.0
 20
0.0
 30
0.0
  3
BLOCK_107
  1

  0
SPLINE
  5
4CF
330
4CB
100
AcDbEntity
  8
0
 62
     7
100
AcDbSpline
210
0.0
220
0.0
230
1.0
 70
    27
 71
     3
 72
    11
 73
     7
 74
     0
 42
0.0000000001
 43
0.0000000001
 12
1.0
 22
0.0
 32
0.0
 13
1.0
 23
0.0
 33
0.0
 40
0.0
 40
0.0
 40
0.0
 40
0.0
 40
1.0
 40
1.0
 40
1.0
 40
2.0
 40
2.0
 40
2.0
 40
2.0
 10
238.6578496403404
 20
201.9844124073147
 30
0.0
 10
238.6578496403404
 20
201.9844124073147
 30
0.0
 10
238.6527696403404
 20
201.9844124073147
 30
0.0
 10
238.6527696403404
 20
201.9844124073147
 30
0.0
 10
238.6527696403404
 20
201.9844124073147
 30
0.0
 10
238.6578496403404
 20
201.9844124073147
 30
0.0
 10
238.6578496403404
 20
201.9844124073147
 30
0.0
  0
ENDBLK
  5
4CE
330
4CB
100
AcDbEntity
  8
0
100
AcDbBlockEnd
  0
BLOCK
  5
4D2
330
4D0
100
AcDbEntity
  8
0
100
AcDbBlockBegin
  2
BLOCK_108
 70
     0
 10
0.0
 20
0.0
 30
0.0
  3
BLOCK_108
  1

  0
SPLINE
  5
4D4
330
4D0
100
AcDbEntity
  8
0
 62
     7
100
AcDbSpline
210
0.0
220
0.0
230
1.0
 70
     8
 71
     3
 72
    11
 73
     7
 74
     0
 42
0.0000000001
 43
0.0000000001
 12
1.0
 22
0.0
 32
0.0
 13
1.0
 23
0.0
 33
0.0
 40
0.0
 40
0.0
 40
0.0
 40
0.0
 40
1.0
 40
1.0
 40
1.0
 40
2.0
 40
2.0
 40
2.0
 40
2.0
 10
-37.85112235965953
 20
187.3469004073146
 30
0.0
 10
-38.56907707046638
 20
187.3469004073146
 30
0.0
 10
-39.15109435965941
 20
186.7648831181216
 30
0.0
 10
-39.15109435965941
 20
186.0469284073147
 30
0.0
 10
-39.15109435965941
 20
185.3289736965075
 30
0.0
 10
-38.56907707046638
 20
184.7469564073145
 30
0.0
 10
-37.85112235965953
 20
184.7469564073145
 30
0.0
  0
ENDBLK
  5
4D3
330
4D0
100
AcDbEntity
  8
0
100
AcDbBlockEnd
  0
BLOCK
  5
4D7
330
4D5
100
AcDbEntity
  8
0
100
AcDbBlockBegin
  2
BLOCK_109
 70
     0
 10
0.0
 20
0.0
 30
0.0
  3
BLOCK_109
  1

  0
SPLINE
  5
4D9
330
4D5
100
AcDbEntity
  8
0
 62
     7
100
AcDbSpline
210
0.0
220
0.0
230
1.0
 70
     8
 71
     3
 72
    11
 73
     7
 74
     0
 42
0.0000000001
 43
0.0000000001
 12
1.0
 22
0.0
 32
0.0
 13
1.0
 23
0.0
 33
0.0
 40
0.0
 40
0.0
 40
0.0
 40
0.0
 40
1.0
 40
1.0
 40
1.0
 40
2.0
 40
2.0
 40
2.0
 40
2.0
 10
-37.84604235965951
 20
184.7469564073145
 30
0.0
 10
-37.12808764885234
 20
184.7469564073145
 30
0.0
 10
-36.5460703596593
 20
185.3289736965075
 30
0.0
 10
-36.5460703596593
 20
186.0469284073147
 30
0.0
 10
-36.5460703596593
 20
186.7648831181216
 30
0.0
 10
-37.12808764885234
 20
187.3469004073146
 30
0.0
 10
-37.84604235965951
 20
187.3469004073146
 30
0.0
  0
ENDBLK
  5
4D8
330
4D5
100
AcDbEntity
  8
0
100
AcDbBlockEnd
  0
BLOCK
  5
4DC
330
4DA
100
AcDbEntity
  8
0
100
AcDbBlockBegin
  2
BLOCK_110
 70
     0
 10
0.0
 20
0.0
 30
0.0
  3
BLOCK_110
  1

  0
SPLINE
  5
4DE
330
4DA
100
AcDbEntity
  8
0
 62
     7
100
AcDbSpline
210
0.0
220
0.0
230
1.0
 70
    27
 71
     3
 72
    11
 73
     7
 74
     0
 42
0.0000000001
 43
0.0000000001
 12
1.0
 22
0.0
 32
0.0
 13
1.0
 23
0.0
 33
0.0
 40
0.0
 40
0.0
 40
0.0
 40
0.0
 40
1.0
 40
1.0
 40
1.0
 40
2.0
 40
2.0
 40
2.0
 40
2.0
 10
-37.84604235965951
 20
187.3469004073146
 30
0.0
 10
-37.84604235965951
 20
187.3469004073146
 30
0.0
 10
-37.85112235965953
 20
187.3469004073146
 30
0.0
 10
-37.85112235965953
 20
187.3469004073146
 30
0.0
 10
-37.85112235965953
 20
187.3469004073146
 30
0.0
 10
-37.84604235965951
 20
187.3469004073146
 30
0.0
 10
-37.84604235965951
 20
187.3469004073146
 30
0.0
  0
ENDBLK
  5
4DD
330
4DA
100
AcDbEntity
  8
0
100
AcDbBlockEnd
  0
BLOCK
  5
4E1
330
4DF
100
AcDbEntity
  8
0
100
AcDbBlockBegin
  2
BLOCK_111
 70
     0
 10
0.0
 20
0.0
 30
0.0
  3
BLOCK_111
  1

  0
SPLINE
  5
4E3
330
4DF
100
AcDbEntity
  8
0
 62
     7
100
AcDbSpline
210
0.0
220
0.0
230
1.0
 70
    27
 71
     3
 72
    11
 73
     7
 74
     0
 42
0.0000000001
 43
0.0000000001
 12
1.0
 22
0.0
 32
0.0
 13
1.0
 23
0.0
 33
0.0
 40
0.0
 40
0.0
 40
0.0
 40
0.0
 40
1.0
 40
1.0
 40
1.0
 40
2.0
 40
2.0
 40
2.0
 40
2.0
 10
-37.84604235965951
 20
184.7469564073145
 30
0.0
 10
-37.84604235965951
 20
184.7469564073145
 30
0.0
 10
-37.85112235965953
 20
184.7469564073145
 30
0.0
 10
-37.85112235965953
 20
184.7469564073145
 30
0.0
 10
-37.85112235965953
 20
184.7469564073145
 30
0.0
 10
-37.84604235965951
 20
184.7469564073145
 30
0.0
 10
-37.84604235965951
 20
184.7469564073145
 30
0.0
  0
ENDBLK
  5
4E2
330
4DF
100
AcDbEntity
  8
0
100
AcDbBlockEnd
  0
BLOCK
  5
4E6
330
4E4
100
AcDbEntity
  8
0
100
AcDbBlockBegin
  2
BLOCK_112
 70
     0
 10
0.0
 20
0.0
 30
0.0
  3
BLOCK_112
  1

  0
SPLINE
  5
4E8
330
4E4
100
AcDbEntity
  8
0
 62
     7
100
AcDbSpline
210
0.0
220
0.0
230
1.0
 70
     8
 71
     3
 72
    11
 73
     7
 74
     0
 42
0.0000000001
 43
0.0000000001
 12
1.0
 22
0.0
 32
0.0
 13
1.0
 23
0.0
 33
0.0
 40
0.0
 40
0.0
 40
0.0
 40
0.0
 40
1.0
 40
1.0
 40
1.0
 40
2.0
 40
2.0
 40
2.0
 40
2.0
 10
-44.99487235965944
 20
94.47815040731447
 30
0.0
 10
-45.71282707046629
 20
94.47815040731447
 30
0.0
 10
-46.29484435965932
 20
93.89613311812175
 30
0.0
 10
-46.29484435965932
 20
93.17817840731459
 30
0.0
 10
-46.29484435965932
 20
92.46022369650741
 30
0.0
 10
-45.71282707046629
 20
91.8782064073147
 30
0.0
 10
-44.99487235965944
 20
91.8782064073147
 30
0.0
  0
ENDBLK
  5
4E7
330
4E4
100
AcDbEntity
  8
0
100
AcDbBlockEnd
  0
BLOCK
  5
4EB
330
4E9
100
AcDbEntity
  8
0
100
AcDbBlockBegin
  2
BLOCK_113
 70
     0
 10
0.0
 20
0.0
 30
0.0
  3
BLOCK_113
  1

  0
SPLINE
  5
4ED
330
4E9
100
AcDbEntity
  8
0
 62
     7
100
AcDbSpline
210
0.0
220
0.0
230
1.0
 70
     8
 71
     3
 72
    11
 73
     7
 74
     0
 42
0.0000000001
 43
0.0000000001
 12
1.0
 22
0.0
 32
0.0
 13
1.0
 23
0.0
 33
0.0
 40
0.0
 40
0.0
 40
0.0
 40
0.0
 40
1.0
 40
1.0
 40
1.0
 40
2.0
 40
2.0
 40
2.0
 40
2.0
 10
-44.98979235965942
 20
91.8782064073147
 30
0.0
 10
-44.27183764885225
 20
91.8782064073147
 30
0.0
 10
-43.68982035965954
 20
92.46022369650741
 30
0.0
 10
-43.68982035965954
 20
93.17817840731459
 30
0.0
 10
-43.68982035965954
 20
93.89613311812175
 30
0.0
 10
-44.27183764885225
 20
94.47815040731447
 30
0.0
 10
-44.98979235965942
 20
94.47815040731447
 30
0.0
  0
ENDBLK
  5
4EC
330
4E9
100
AcDbEntity
  8
0
100
AcDbBlockEnd
  0
BLOCK
  5
4F0
330
4EE
100
AcDbEntity
  8
0
100
AcDbBlockBegin
  2
BLOCK_114
 70
     0
 10
0.0
 20
0.0
 30
0.0
  3
BLOCK_114
  1

  0
SPLINE
  5
4F2
330
4EE
100
AcDbEntity
  8
0
 62
     7
100
AcDbSpline
210
0.0
220
0.0
230
1.0
 70
    27
 71
     3
 72
    11
 73
     7
 74
     0
 42
0.0000000001
 43
0.0000000001
 12
1.0
 22
0.0
 32
0.0
 13
1.0
 23
0.0
 33
0.0
 40
0.0
 40
0.0
 40
0.0
 40
0.0
 40
1.0
 40
1.0
 40
1.0
 40
2.0
 40
2.0
 40
2.0
 40
2.0
 10
-44.98979235965942
 20
94.47815040731447
 30
0.0
 10
-44.98979235965942
 20
94.47815040731447
 30
0.0
 10
-44.99487235965944
 20
94.47815040731447
 30
0.0
 10
-44.99487235965944
 20
94.47815040731447
 30
0.0
 10
-44.99487235965944
 20
94.47815040731447
 30
0.0
 10
-44.98979235965942
 20
94.47815040731447
 30
0.0
 10
-44.98979235965942
 20
94.47815040731447
 30
0.0
  0
ENDBLK
  5
4F1
330
4EE
100
AcDbEntity
  8
0
100
AcDbBlockEnd
  0
BLOCK
  5
4F5
330
4F3
100
AcDbEntity
  8
0
100
AcDbBlockBegin
  2
BLOCK_115
 70
     0
 10
0.0
 20
0.0
 30
0.0
  3
BLOCK_115
  1

  0
SPLINE
  5
4F7
330
4F3
100
AcDbEntity
  8
0
 62
     7
100
AcDbSpline
210
0.0
220
0.0
230
1.0
 70
    27
 71
     3
 72
    11
 73
     7
 74
     0
 42
0.0000000001
 43
0.0000000001
 12
1.0
 22
0.0
 32
0.0
 13
1.0
 23
0.0
 33
0.0
 40
0.0
 40
0.0
 40
0.0
 40
0.0
 40
1.0
 40
1.0
 40
1.0
 40
2.0
 40
2.0
 40
2.0
 40
2.0
 10
-44.98979235965942
 20
91.8782064073147
 30
0.0
 10
-44.98979235965942
 20
91.8782064073147
 30
0.0
 10
-44.99487235965944
 20
91.8782064073147
 30
0.0
 10
-44.99487235965944
 20
91.8782064073147
 30
0.0
 10
-44.99487235965944
 20
91.8782064073147
 30
0.0
 10
-44.98979235965942
 20
91.8782064073147
 30
0.0
 10
-44.98979235965942
 20
91.8782064073147
 30
0.0
  0
ENDBLK
  5
4F6
330
4F3
100
AcDbEntity
  8
0
100
AcDbBlockEnd
  0
BLOCK
  5
4FA
330
4F8
100
AcDbEntity
  8
0
100
AcDbBlockBegin
  2
BLOCK_116
 70
     0
 10
0.0
 20
0.0
 30
0.0
  3
BLOCK_116
  1

  0
SPLINE
  5
4FC
330
4F8
100
AcDbEntity
  8
0
 62
     7
100
AcDbSpline
210
0.0
220
0.0
230
1.0
 70
     8
 71
     3
 72
    11
 73
     7
 74
     0
 42
0.0000000001
 43
0.0000000001
 12
1.0
 22
0.0
 32
0.0
 13
1.0
 23
0.0
 33
0.0
 40
0.0
 40
0.0
 40
0.0
 40
0.0
 40
1.0
 40
1.0
 40
1.0
 40
2.0
 40
2.0
 40
2.0
 40
2.0
 10
237.6553116403404
 20
112.4158844073144
 30
0.0
 10
236.550744349818
 20
112.4158844073144
 30
0.0
 10
235.6553156403405
 20
111.5204556978369
 30
0.0
 10
235.6553156403405
 20
110.4158884073145
 30
0.0
 10
235.6553156403405
 20
109.311321116792
 30
0.0
 10
236.550744349818
 20
108.4158924073145
 30
0.0
 10
237.6553116403404
 20
108.4158924073145
 30
0.0
  0
ENDBLK
  5
4FB
330
4F8
100
AcDbEntity
  8
0
100
AcDbBlockEnd
  0
BLOCK
  5
4FF
330
4FD
100
AcDbEntity
  8
0
100
AcDbBlockBegin
  2
BLOCK_117
 70
     0
 10
0.0
 20
0.0
 30
0.0
  3
BLOCK_117
  1

  0
SPLINE
  5
501
330
4FD
100
AcDbEntity
  8
0
 62
     7
100
AcDbSpline
210
0.0
220
0.0
230
1.0
 70
     8
 71
     3
 72
    11
 73
     7
 74
     0
 42
0.0000000001
 43
0.0000000001
 12
1.0
 22
0.0
 32
0.0
 13
1.0
 23
0.0
 33
0.0
 40
0.0
 40
0.0
 40
0.0
 40
0.0
 40
1.0
 40
1.0
 40
1.0
 40
2.0
 40
2.0
 40
2.0
 40
2.0
 10
239.6553076403404
 20
108.4158924073145
 30
0.0
 10
240.7598749308635
 20
108.4158924073145
 30
0.0
 10
241.6553036403403
 20
109.311321116792
 30
0.0
 10
241.6553036403403
 20
110.4158884073145
 30
0.0
 10
241.6553036403403
 20
111.5204556978369
 30
0.0
 10
240.7598749308635
 20
112.4158844073144
 30
0.0
 10
239.6553076403404
 20
112.4158844073144
 30
0.0
  0
ENDBLK
  5
500
330
4FD
100
AcDbEntity
  8
0
100
AcDbBlockEnd
  0
BLOCK
  5
504
330
502
100
AcDbEntity
  8
0
100
AcDbBlockBegin
  2
BLOCK_118
 70
     0
 10
0.0
 20
0.0
 30
0.0
  3
BLOCK_118
  1

  0
SPLINE
  5
506
330
502
100
AcDbEntity
  8
0
 62
     7
100
AcDbSpline
210
0.0
220
0.0
230
1.0
 70
    27
 71
     3
 72
    11
 73
     7
 74
     0
 42
0.0000000001
 43
0.0000000001
 12
1.0
 22
0.0
 32
0.0
 13
1.0
 23
0.0
 33
0.0
 40
0.0
 40
0.0
 40
0.0
 40
0.0
 40
1.0
 40
1.0
 40
1.0
 40
2.0
 40
2.0
 40
2.0
 40
2.0
 10
239.6553076403404
 20
112.4158844073144
 30
0.0
 10
239.6553076403404
 20
112.4158844073144
 30
0.0
 10
237.6553116403404
 20
112.4158844073144
 30
0.0
 10
237.6553116403404
 20
112.4158844073144
 30
0.0
 10
237.6553116403404
 20
112.4158844073144
 30
0.0
 10
239.6553076403404
 20
112.4158844073144
 30
0.0
 10
239.6553076403404
 20
112.4158844073144
 30
0.0
  0
ENDBLK
  5
505
330
502
100
AcDbEntity
  8
0
100
AcDbBlockEnd
  0
BLOCK
  5
509
330
507
100
AcDbEntity
  8
0
100
AcDbBlockBegin
  2
BLOCK_119
 70
     0
 10
0.0
 20
0.0
 30
0.0
  3
BLOCK_119
  1

  0
SPLINE
  5
50B
330
507
100
AcDbEntity
  8
0
 62
     7
100
AcDbSpline
210
0.0
220
0.0
230
1.0
 70
    27
 71
     3
 72
    11
 73
     7
 74
     0
 42
0.0000000001
 43
0.0000000001
 12
1.0
 22
0.0
 32
0.0
 13
1.0
 23
0.0
 33
0.0
 40
0.0
 40
0.0
 40
0.0
 40
0.0
 40
1.0
 40
1.0
 40
1.0
 40
2.0
 40
2.0
 40
2.0
 40
2.0
 10
239.6553076403404
 20
108.4158924073145
 30
0.0
 10
239.6553076403404
 20
108.4158924073145
 30
0.0
 10
237.6553116403404
 20
108.4158924073145
 30
0.0
 10
237.6553116403404
 20
108.4158924073145
 30
0.0
 10
237.6553116403404
 20
108.4158924073145
 30
0.0
 10
239.6553076403404
 20
108.4158924073145
 30
0.0
 10
239.6553076403404
 20
108.4158924073145
 30
0.0
  0
ENDBLK
  5
50A
330
507
100
AcDbEntity
  8
0
100
AcDbBlockEnd
  0
BLOCK
  5
50E
330
50C
100
AcDbEntity
  8
0
100
AcDbBlockBegin
  2
BLOCK_120
 70
     0
 10
0.0
 20
0.0
 30
0.0
  3
BLOCK_120
  1

  0
SPLINE
  5
510
330
50C
100
AcDbEntity
  8
0
 62
     7
100
AcDbSpline
210
0.0
220
0.0
230
1.0
 70
     8
 71
     3
 72
    11
 73
     7
 74
     0
 42
0.0000000001
 43
0.0000000001
 12
1.0
 22
0.0
 32
0.0
 13
1.0
 23
0.0
 33
0.0
 40
0.0
 40
0.0
 40
0.0
 40
0.0
 40
1.0
 40
1.0
 40
1.0
 40
2.0
 40
2.0
 40
2.0
 40
2.0
 10
140.0243156403405
 20
102.8908844073143
 30
0.0
 10
138.919748349818
 20
102.8908844073143
 30
0.0
 10
138.0243196403406
 20
101.9954556978375
 30
0.0
 10
138.0243196403406
 20
100.8908884073143
 30
0.0
 10
138.0243196403406
 20
99.78632111679187
 30
0.0
 10
138.919748349818
 20
98.89089240731444
 30
0.0
 10
140.0243156403405
 20
98.89089240731444
 30
0.0
  0
ENDBLK
  5
50F
330
50C
100
AcDbEntity
  8
0
100
AcDbBlockEnd
  0
BLOCK
  5
513
330
511
100
AcDbEntity
  8
0
100
AcDbBlockBegin
  2
BLOCK_121
 70
     0
 10
0.0
 20
0.0
 30
0.0
  3
BLOCK_121
  1

  0
SPLINE
  5
515
330
511
100
AcDbEntity
  8
0
 62
     7
100
AcDbSpline
210
0.0
220
0.0
230
1.0
 70
     8
 71
     3
 72
    11
 73
     7
 74
     0
 42
0.0000000001
 43
0.0000000001
 12
1.0
 22
0.0
 32
0.0
 13
1.0
 23
0.0
 33
0.0
 40
0.0
 40
0.0
 40
0.0
 40
0.0
 40
1.0
 40
1.0
 40
1.0
 40
2.0
 40
2.0
 40
2.0
 40
2.0
 10
142.0243116403404
 20
98.89089240731444
 30
0.0
 10
143.1288789308629
 20
98.89089240731444
 30
0.0
 10
144.0243076403403
 20
99.78632111679187
 30
0.0
 10
144.0243076403403
 20
100.8908884073143
 30
0.0
 10
144.0243076403403
 20
101.9954556978375
 30
0.0
 10
143.1288789308629
 20
102.8908844073143
 30
0.0
 10
142.0243116403404
 20
102.8908844073143
 30
0.0
  0
ENDBLK
  5
514
330
511
100
AcDbEntity
  8
0
100
AcDbBlockEnd
  0
BLOCK
  5
518
330
516
100
AcDbEntity
  8
0
100
AcDbBlockBegin
  2
BLOCK_122
 70
     0
 10
0.0
 20
0.0
 30
0.0
  3
BLOCK_122
  1

  0
SPLINE
  5
51A
330
516
100
AcDbEntity
  8
0
 62
     7
100
AcDbSpline
210
0.0
220
0.0
230
1.0
 70
    27
 71
     3
 72
    11
 73
     7
 74
     0
 42
0.0000000001
 43
0.0000000001
 12
1.0
 22
0.0
 32
0.0
 13
1.0
 23
0.0
 33
0.0
 40
0.0
 40
0.0
 40
0.0
 40
0.0
 40
1.0
 40
1.0
 40
1.0
 40
2.0
 40
2.0
 40
2.0
 40
2.0
 10
142.0243116403404
 20
102.8908844073149
 30
0.0
 10
142.0243116403404
 20
102.8908844073149
 30
0.0
 10
140.0243156403405
 20
102.8908844073149
 30
0.0
 10
140.0243156403405
 20
102.8908844073149
 30
0.0
 10
140.0243156403405
 20
102.8908844073149
 30
0.0
 10
142.0243116403404
 20
102.8908844073149
 30
0.0
 10
142.0243116403404
 20
102.8908844073149
 30
0.0
  0
ENDBLK
  5
519
330
516
100
AcDbEntity
  8
0
100
AcDbBlockEnd
  0
BLOCK
  5
51D
330
51B
100
AcDbEntity
  8
0
100
AcDbBlockBegin
  2
BLOCK_123
 70
     0
 10
0.0
 20
0.0
 30
0.0
  3
BLOCK_123
  1

  0
SPLINE
  5
51F
330
51B
100
AcDbEntity
  8
0
 62
     7
100
AcDbSpline
210
0.0
220
0.0
230
1.0
 70
    27
 71
     3
 72
    11
 73
     7
 74
     0
 42
0.0000000001
 43
0.0000000001
 12
1.0
 22
0.0
 32
0.0
 13
1.0
 23
0.0
 33
0.0
 40
0.0
 40
0.0
 40
0.0
 40
0.0
 40
1.0
 40
1.0
 40
1.0
 40
2.0
 40
2.0
 40
2.0
 40
2.0
 10
142.0243116403404
 20
98.89089240731444
 30
0.0
 10
142.0243116403404
 20
98.89089240731444
 30
0.0
 10
140.0243156403405
 20
98.89089240731444
 30
0.0
 10
140.0243156403405
 20
98.89089240731444
 30
0.0
 10
140.0243156403405
 20
98.89089240731444
 30
0.0
 10
142.0243116403404
 20
98.89089240731444
 30
0.0
 10
142.0243116403404
 20
98.89089240731444
 30
0.0
  0
ENDBLK
  5
51E
330
51B
100
AcDbEntity
  8
0
100
AcDbBlockEnd
  0
BLOCK
  5
522
330
520
100
AcDbEntity
  8
0
100
AcDbBlockBegin
  2
BLOCK_124
 70
     0
 10
0.0
 20
0.0
 30
0.0
  3
BLOCK_124
  1

  0
SPLINE
  5
524
330
520
100
AcDbEntity
  8
0
 62
     7
100
AcDbSpline
210
0.0
220
0.0
230
1.0
 70
     8
 71
     3
 72
    11
 73
     7
 74
     0
 42
0.0000000001
 43
0.0000000001
 12
1.0
 22
0.0
 32
0.0
 13
1.0
 23
0.0
 33
0.0
 40
0.0
 40
0.0
 40
0.0
 40
0.0
 40
1.0
 40
1.0
 40
1.0
 40
2.0
 40
2.0
 40
2.0
 40
2.0
 10
-24.28168035965942
 20
102.8908844073143
 30
0.0
 10
-25.38624765018191
 20
102.8908844073143
 30
0.0
 10
-26.28167635965933
 20
101.9954556978375
 30
0.0
 10
-26.28167635965933
 20
100.8908884073143
 30
0.0
 10
-26.28167635965933
 20
99.78632111679187
 30
0.0
 10
-25.38624765018191
 20
98.89089240731444
 30
0.0
 10
-24.28168035965942
 20
98.89089240731444
 30
0.0
  0
ENDBLK
  5
523
330
520
100
AcDbEntity
  8
0
100
AcDbBlockEnd
  0
BLOCK
  5
527
330
525
100
AcDbEntity
  8
0
100
AcDbBlockBegin
  2
BLOCK_125
 70
     0
 10
0.0
 20
0.0
 30
0.0
  3
BLOCK_125
  1

  0
SPLINE
  5
529
330
525
100
AcDbEntity
  8
0
 62
     7
100
AcDbSpline
210
0.0
220
0.0
230
1.0
 70
     8
 71
     3
 72
    11
 73
     7
 74
     0
 42
0.0000000001
 43
0.0000000001
 12
1.0
 22
0.0
 32
0.0
 13
1.0
 23
0.0
 33
0.0
 40
0.0
 40
0.0
 40
0.0
 40
0.0
 40
1.0
 40
1.0
 40
1.0
 40
2.0
 40
2.0
 40
2.0
 40
2.0
 10
-22.28168435965951
 20
98.89089240731444
 30
0.0
 10
-21.1771170691367
 20
98.89089240731444
 30
0.0
 10
-20.28168835965928
 20
99.78632111679187
 30
0.0
 10
-20.28168835965928
 20
100.8908884073143
 30
0.0
 10
-20.28168835965928
 20
101.9954556978375
 30
0.0
 10
-21.1771170691367
 20
102.8908844073143
 30
0.0
 10
-22.28168435965951
 20
102.8908844073143
 30
0.0
  0
ENDBLK
  5
528
330
525
100
AcDbEntity
  8
0
100
AcDbBlockEnd
  0
BLOCK
  5
52C
330
52A
100
AcDbEntity
  8
0
100
AcDbBlockBegin
  2
BLOCK_126
 70
     0
 10
0.0
 20
0.0
 30
0.0
  3
BLOCK_126
  1

  0
SPLINE
  5
52E
330
52A
100
AcDbEntity
  8
0
 62
     7
100
AcDbSpline
210
0.0
220
0.0
230
1.0
 70
    27
 71
     3
 72
    11
 73
     7
 74
     0
 42
0.0000000001
 43
0.0000000001
 12
1.0
 22
0.0
 32
0.0
 13
1.0
 23
0.0
 33
0.0
 40
0.0
 40
0.0
 40
0.0
 40
0.0
 40
1.0
 40
1.0
 40
1.0
 40
2.0
 40
2.0
 40
2.0
 40
2.0
 10
-22.28168435965951
 20
102.8908844073149
 30
0.0
 10
-22.28168435965951
 20
102.8908844073149
 30
0.0
 10
-24.28168035965942
 20
102.8908844073149
 30
0.0
 10
-24.28168035965942
 20
102.8908844073149
 30
0.0
 10
-24.28168035965942
 20
102.8908844073149
 30
0.0
 10
-22.28168435965951
 20
102.8908844073149
 30
0.0
 10
-22.28168435965951
 20
102.8908844073149
 30
0.0
  0
ENDBLK
  5
52D
330
52A
100
AcDbEntity
  8
0
100
AcDbBlockEnd
  0
BLOCK
  5
531
330
52F
100
AcDbEntity
  8
0
100
AcDbBlockBegin
  2
BLOCK_127
 70
     0
 10
0.0
 20
0.0
 30
0.0
  3
BLOCK_127
  1

  0
SPLINE
  5
533
330
52F
100
AcDbEntity
  8
0
 62
     7
100
AcDbSpline
210
0.0
220
0.0
230
1.0
 70
    27
 71
     3
 72
    11
 73
     7
 74
     0
 42
0.0000000001
 43
0.0000000001
 12
1.0
 22
0.0
 32
0.0
 13
1.0
 23
0.0
 33
0.0
 40
0.0
 40
0.0
 40
0.0
 40
0.0
 40
1.0
 40
1.0
 40
1.0
 40
2.0
 40
2.0
 40
2.0
 40
2.0
 10
-22.28168435965951
 20
98.89089240731444
 30
0.0
 10
-22.28168435965951
 20
98.89089240731444
 30
0.0
 10
-24.28168035965942
 20
98.89089240731444
 30
0.0
 10
-24.28168035965942
 20
98.89089240731444
 30
0.0
 10
-24.28168035965942
 20
98.89089240731444
 30
0.0
 10
-22.28168435965951
 20
98.89089240731444
 30
0.0
 10
-22.28168435965951
 20
98.89089240731444
 30
0.0
  0
ENDBLK
  5
532
330
52F
100
AcDbEntity
  8
0
100
AcDbBlockEnd
  0
BLOCK
  5
536
330
534
100
AcDbEntity
  8
0
100
AcDbBlockBegin
  2
BLOCK_128
 70
     0
 10
0.0
 20
0.0
 30
0.0
  3
BLOCK_128
  1

  0
SPLINE
  5
538
330
534
100
AcDbEntity
  8
0
 62
     7
100
AcDbSpline
210
0.0
220
0.0
230
1.0
 70
     8
 71
     3
 72
    11
 73
     7
 74
     0
 42
0.0000000001
 43
0.0000000001
 12
1.0
 22
0.0
 32
0.0
 13
1.0
 23
0.0
 33
0.0
 40
0.0
 40
0.0
 40
0.0
 40
0.0
 40
1.0
 40
1.0
 40
1.0
 40
2.0
 40
2.0
 40
2.0
 40
2.0
 10
218.6053116403403
 20
188.6158844073145
 30
0.0
 10
217.5007443498178
 20
188.6158844073145
 30
0.0
 10
216.6053156403403
 20
187.7204556978371
 30
0.0
 10
216.6053156403403
 20
186.6158884073146
 30
0.0
 10
216.6053156403403
 20
185.5113211167921
 30
0.0
 10
217.5007443498178
 20
184.6158924073147
 30
0.0
 10
218.6053116403403
 20
184.6158924073147
 30
0.0
  0
ENDBLK
  5
537
330
534
100
AcDbEntity
  8
0
100
AcDbBlockEnd
  0
BLOCK
  5
53B
330
539
100
AcDbEntity
  8
0
100
AcDbBlockBegin
  2
BLOCK_129
 70
     0
 10
0.0
 20
0.0
 30
0.0
  3
BLOCK_129
  1

  0
SPLINE
  5
53D
330
539
100
AcDbEntity
  8
0
 62
     7
100
AcDbSpline
210
0.0
220
0.0
230
1.0
 70
     8
 71
     3
 72
    11
 73
     7
 74
     0
 42
0.0000000001
 43
0.0000000001
 12
1.0
 22
0.0
 32
0.0
 13
1.0
 23
0.0
 33
0.0
 40
0.0
 40
0.0
 40
0.0
 40
0.0
 40
1.0
 40
1.0
 40
1.0
 40
2.0
 40
2.0
 40
2.0
 40
2.0
 10
220.6053076403408
 20
184.6158924073147
 30
0.0
 10
221.7098749308633
 20
184.6158924073147
 30
0.0
 10
222.6053036403407
 20
185.5113211167921
 30
0.0
 10
222.6053036403407
 20
186.6158884073146
 30
0.0
 10
222.6053036403407
 20
187.7204556978371
 30
0.0
 10
221.7098749308633
 20
188.6158844073145
 30
0.0
 10
220.6053076403408
 20
188.6158844073145
 30
0.0
  0
ENDBLK
  5
53C
330
539
100
AcDbEntity
  8
0
100
AcDbBlockEnd
  0
BLOCK
  5
540
330
53E
100
AcDbEntity
  8
0
100
AcDbBlockBegin
  2
BLOCK_130
 70
     0
 10
0.0
 20
0.0
 30
0.0
  3
BLOCK_130
  1

  0
SPLINE
  5
542
330
53E
100
AcDbEntity
  8
0
 62
     7
100
AcDbSpline
210
0.0
220
0.0
230
1.0
 70
    27
 71
     3
 72
    11
 73
     7
 74
     0
 42
0.0000000001
 43
0.0000000001
 12
1.0
 22
0.0
 32
0.0
 13
1.0
 23
0.0
 33
0.0
 40
0.0
 40
0.0
 40
0.0
 40
0.0
 40
1.0
 40
1.0
 40
1.0
 40
2.0
 40
2.0
 40
2.0
 40
2.0
 10
220.6053076403408
 20
188.6158844073145
 30
0.0
 10
220.6053076403408
 20
188.6158844073145
 30
0.0
 10
218.6053116403403
 20
188.6158844073145
 30
0.0
 10
218.6053116403403
 20
188.6158844073145
 30
0.0
 10
218.6053116403403
 20
188.6158844073145
 30
0.0
 10
220.6053076403408
 20
188.6158844073145
 30
0.0
 10
220.6053076403408
 20
188.6158844073145
 30
0.0
  0
ENDBLK
  5
541
330
53E
100
AcDbEntity
  8
0
100
AcDbBlockEnd
  0
BLOCK
  5
545
330
543
100
AcDbEntity
  8
0
100
AcDbBlockBegin
  2
BLOCK_131
 70
     0
 10
0.0
 20
0.0
 30
0.0
  3
BLOCK_131
  1

  0
SPLINE
  5
547
330
543
100
AcDbEntity
  8
0
 62
     7
100
AcDbSpline
210
0.0
220
0.0
230
1.0
 70
    27
 71
     3
 72
    11
 73
     7
 74
     0
 42
0.0000000001
 43
0.0000000001
 12
1.0
 22
0.0
 32
0.0
 13
1.0
 23
0.0
 33
0.0
 40
0.0
 40
0.0
 40
0.0
 40
0.0
 40
1.0
 40
1.0
 40
1.0
 40
2.0
 40
2.0
 40
2.0
 40
2.0
 10
220.6053076403408
 20
184.6158924073147
 30
0.0
 10
220.6053076403408
 20
184.6158924073147
 30
0.0
 10
218.6053116403403
 20
184.6158924073147
 30
0.0
 10
218.6053116403403
 20
184.6158924073147
 30
0.0
 10
218.6053116403403
 20
184.6158924073147
 30
0.0
 10
220.6053076403408
 20
184.6158924073147
 30
0.0
 10
220.6053076403408
 20
184.6158924073147
 30
0.0
  0
ENDBLK
  5
546
330
543
100
AcDbEntity
  8
0
100
AcDbBlockEnd
  0
BLOCK
  5
54A
330
548
100
AcDbEntity
  8
0
100
AcDbBlockBegin
  2
BLOCK_132
 70
     0
 10
0.0
 20
0.0
 30
0.0
  3
BLOCK_132
  1

  0
SPLINE
  5
54C
330
548
100
AcDbEntity
  8
0
 62
     7
100
AcDbSpline
210
0.0
220
0.0
230
1.0
 70
     8
 71
     3
 72
    11
 73
     7
 74
     0
 42
0.0000000001
 43
0.0000000001
 12
1.0
 22
0.0
 32
0.0
 13
1.0
 23
0.0
 33
0.0
 40
0.0
 40
0.0
 40
0.0
 40
0.0
 40
1.0
 40
1.0
 40
1.0
 40
2.0
 40
2.0
 40
2.0
 40
2.0
 10
-9.994180359659278
 20
188.6158844073145
 30
0.0
 10
-11.09874765018209
 20
188.6158844073145
 30
0.0
 10
-11.99417635965951
 20
187.7204556978371
 30
0.0
 10
-11.99417635965951
 20
186.6158884073146
 30
0.0
 10
-11.99417635965951
 20
185.5113211167921
 30
0.0
 10
-11.09874765018209
 20
184.6158924073147
 30
0.0
 10
-9.994180359659278
 20
184.6158924073147
 30
0.0
  0
ENDBLK
  5
54B
330
548
100
AcDbEntity
  8
0
100
AcDbBlockEnd
  0
BLOCK
  5
54F
330
54D
100
AcDbEntity
  8
0
100
AcDbBlockBegin
  2
BLOCK_133
 70
     0
 10
0.0
 20
0.0
 30
0.0
  3
BLOCK_133
  1

  0
SPLINE
  5
551
330
54D
100
AcDbEntity
  8
0
 62
     7
100
AcDbSpline
210
0.0
220
0.0
230
1.0
 70
     8
 71
     3
 72
    11
 73
     7
 74
     0
 42
0.0000000001
 43
0.0000000001
 12
1.0
 22
0.0
 32
0.0
 13
1.0
 23
0.0
 33
0.0
 40
0.0
 40
0.0
 40
0.0
 40
0.0
 40
1.0
 40
1.0
 40
1.0
 40
2.0
 40
2.0
 40
2.0
 40
2.0
 10
-7.994184359659368
 20
184.6158924073147
 30
0.0
 10
-6.88961706913688
 20
184.6158924073147
 30
0.0
 10
-5.994188359659458
 20
185.5113211167921
 30
0.0
 10
-5.994188359659458
 20
186.6158884073146
 30
0.0
 10
-5.994188359659458
 20
187.7204556978371
 30
0.0
 10
-6.88961706913688
 20
188.6158844073145
 30
0.0
 10
-7.994184359659368
 20
188.6158844073145
 30
0.0
  0
ENDBLK
  5
550
330
54D
100
AcDbEntity
  8
0
100
AcDbBlockEnd
  0
BLOCK
  5
554
330
552
100
AcDbEntity
  8
0
100
AcDbBlockBegin
  2
BLOCK_134
 70
     0
 10
0.0
 20
0.0
 30
0.0
  3
BLOCK_134
  1

  0
SPLINE
  5
556
330
552
100
AcDbEntity
  8
0
 62
     7
100
AcDbSpline
210
0.0
220
0.0
230
1.0
 70
    27
 71
     3
 72
    11
 73
     7
 74
     0
 42
0.0000000001
 43
0.0000000001
 12
1.0
 22
0.0
 32
0.0
 13
1.0
 23
0.0
 33
0.0
 40
0.0
 40
0.0
 40
0.0
 40
0.0
 40
1.0
 40
1.0
 40
1.0
 40
2.0
 40
2.0
 40
2.0
 40
2.0
 10
-7.994184359659368
 20
188.6158844073145
 30
0.0
 10
-7.994184359659368
 20
188.6158844073145
 30
0.0
 10
-9.994180359659278
 20
188.6158844073145
 30
0.0
 10
-9.994180359659278
 20
188.6158844073145
 30
0.0
 10
-9.994180359659278
 20
188.6158844073145
 30
0.0
 10
-7.994184359659368
 20
188.6158844073145
 30
0.0
 10
-7.994184359659368
 20
188.6158844073145
 30
0.0
  0
ENDBLK
  5
555
330
552
100
AcDbEntity
  8
0
100
AcDbBlockEnd
  0
BLOCK
  5
559
330
557
100
AcDbEntity
  8
0
100
AcDbBlockBegin
  2
BLOCK_135
 70
     0
 10
0.0
 20
0.0
 30
0.0
  3
BLOCK_135
  1

  0
SPLINE
  5
55B
330
557
100
AcDbEntity
  8
0
 62
     7
100
AcDbSpline
210
0.0
220
0.0
230
1.0
 70
    27
 71
     3
 72
    11
 73
     7
 74
     0
 42
0.0000000001
 43
0.0000000001
 12
1.0
 22
0.0
 32
0.0
 13
1.0
 23
0.0
 33
0.0
 40
0.0
 40
0.0
 40
0.0
 40
0.0
 40
1.0
 40
1.0
 40
1.0
 40
2.0
 40
2.0
 40
2.0
 40
2.0
 10
-7.994184359659368
 20
184.6158924073147
 30
0.0
 10
-7.994184359659368
 20
184.6158924073147
 30
0.0
 10
-9.994180359659278
 20
184.6158924073147
 30
0.0
 10
-9.994180359659278
 20
184.6158924073147
 30
0.0
 10
-9.994180359659278
 20
184.6158924073147
 30
0.0
 10
-7.994184359659368
 20
184.6158924073147
 30
0.0
 10
-7.994184359659368
 20
184.6158924073147
 30
0.0
  0
ENDBLK
  5
55A
330
557
100
AcDbEntity
  8
0
100
AcDbBlockEnd
  0
BLOCK
  5
55E
330
55C
100
AcDbEntity
  8
0
100
AcDbBlockBegin
  2
BLOCK_136
 70
     0
 10
0.0
 20
0.0
 30
0.0
  3
BLOCK_136
  1

  0
SPLINE
  5
560
330
55C
100
AcDbEntity
  8
0
 62
     7
100
AcDbSpline
210
0.0
220
0.0
230
1.0
 70
     8
 71
     3
 72
    11
 73
     7
 74
     0
 42
0.0000000001
 43
0.0000000001
 12
1.0
 22
0.0
 32
0.0
 13
1.0
 23
0.0
 33
0.0
 40
0.0
 40
0.0
 40
0.0
 40
0.0
 40
1.0
 40
1.0
 40
1.0
 40
2.0
 40
2.0
 40
2.0
 40
2.0
 10
13.51834564034071
 20
121.1409114073149
 30
0.0
 10
12.85559123799429
 20
121.1409114073149
 30
0.0
 10
12.31832264034071
 20
120.603642809661
 30
0.0
 10
12.31832264034071
 20
119.9408884073145
 30
0.0
 10
12.31832264034071
 20
119.2781340049681
 30
0.0
 10
12.85559123799429
 20
118.7408654073149
 30
0.0
 10
13.51834564034071
 20
118.7408654073149
 30
0.0
  0
ENDBLK
  5
55F
330
55C
100
AcDbEntity
  8
0
100
AcDbBlockEnd
  0
BLOCK
  5
563
330
561
100
AcDbEntity
  8
0
100
AcDbBlockBegin
  2
BLOCK_137
 70
     0
 10
0.0
 20
0.0
 30
0.0
  3
BLOCK_137
  1

  0
SPLINE
  5
565
330
561
100
AcDbEntity
  8
0
 62
     7
100
AcDbSpline
210
0.0
220
0.0
230
1.0
 70
     8
 71
     3
 72
    11
 73
     7
 74
     0
 42
0.0000000001
 43
0.0000000001
 12
1.0
 22
0.0
 32
0.0
 13
1.0
 23
0.0
 33
0.0
 40
0.0
 40
0.0
 40
0.0
 40
0.0
 40
1.0
 40
1.0
 40
1.0
 40
2.0
 40
2.0
 40
2.0
 40
2.0
 10
16.11828964034048
 20
118.7408654073149
 30
0.0
 10
16.7810440426869
 20
118.7408654073149
 30
0.0
 10
17.31831264034048
 20
119.2781340049681
 30
0.0
 10
17.31831264034048
 20
119.9408884073145
 30
0.0
 10
17.31831264034048
 20
120.603642809661
 30
0.0
 10
16.7810440426869
 20
121.1409114073149
 30
0.0
 10
16.11828964034048
 20
121.1409114073149
 30
0.0
  0
ENDBLK
  5
564
330
561
100
AcDbEntity
  8
0
100
AcDbBlockEnd
  0
BLOCK
  5
568
330
566
100
AcDbEntity
  8
0
100
AcDbBlockBegin
  2
BLOCK_138
 70
     0
 10
0.0
 20
0.0
 30
0.0
  3
BLOCK_138
  1

  0
SPLINE
  5
56A
330
566
100
AcDbEntity
  8
0
 62
     7
100
AcDbSpline
210
0.0
220
0.0
230
1.0
 70
    27
 71
     3
 72
    11
 73
     7
 74
     0
 42
0.0000000001
 43
0.0000000001
 12
1.0
 22
0.0
 32
0.0
 13
1.0
 23
0.0
 33
0.0
 40
0.0
 40
0.0
 40
0.0
 40
0.0
 40
1.0
 40
1.0
 40
1.0
 40
2.0
 40
2.0
 40
2.0
 40
2.0
 10
16.11828964034048
 20
121.1409114073149
 30
0.0
 10
16.11828964034048
 20
121.1409114073149
 30
0.0
 10
13.51834564034071
 20
121.1409114073149
 30
0.0
 10
13.51834564034071
 20
121.1409114073149
 30
0.0
 10
13.51834564034071
 20
121.1409114073149
 30
0.0
 10
16.11828964034048
 20
121.1409114073149
 30
0.0
 10
16.11828964034048
 20
121.1409114073149
 30
0.0
  0
ENDBLK
  5
569
330
566
100
AcDbEntity
  8
0
100
AcDbBlockEnd
  0
BLOCK
  5
56D
330
56B
100
AcDbEntity
  8
0
100
AcDbBlockBegin
  2
BLOCK_139
 70
     0
 10
0.0
 20
0.0
 30
0.0
  3
BLOCK_139
  1

  0
SPLINE
  5
56F
330
56B
100
AcDbEntity
  8
0
 62
     7
100
AcDbSpline
210
0.0
220
0.0
230
1.0
 70
    27
 71
     3
 72
    11
 73
     7
 74
     0
 42
0.0000000001
 43
0.0000000001
 12
1.0
 22
0.0
 32
0.0
 13
1.0
 23
0.0
 33
0.0
 40
0.0
 40
0.0
 40
0.0
 40
0.0
 40
1.0
 40
1.0
 40
1.0
 40
2.0
 40
2.0
 40
2.0
 40
2.0
 10
16.11828964034048
 20
118.7408654073149
 30
0.0
 10
16.11828964034048
 20
118.7408654073149
 30
0.0
 10
13.51834564034071
 20
118.7408654073149
 30
0.0
 10
13.51834564034071
 20
118.7408654073149
 30
0.0
 10
13.51834564034071
 20
118.7408654073149
 30
0.0
 10
16.11828964034048
 20
118.7408654073149
 30
0.0
 10
16.11828964034048
 20
118.7408654073149
 30
0.0
  0
ENDBLK
  5
56E
330
56B
100
AcDbEntity
  8
0
100
AcDbBlockEnd
  0
BLOCK
  5
572
330
570
100
AcDbEntity
  8
0
100
AcDbBlockBegin
  2
BLOCK_140
 70
     0
 10
0.0
 20
0.0
 30
0.0
  3
BLOCK_140
  1

  0
SPLINE
  5
574
330
570
100
AcDbEntity
  8
0
 62
     7
100
AcDbSpline
210
0.0
220
0.0
230
1.0
 70
     8
 71
     3
 72
    11
 73
     7
 74
     0
 42
0.0000000001
 43
0.0000000001
 12
1.0
 22
0.0
 32
0.0
 13
1.0
 23
0.0
 33
0.0
 40
0.0
 40
0.0
 40
0.0
 40
0.0
 40
1.0
 40
1.0
 40
1.0
 40
2.0
 40
2.0
 40
2.0
 40
2.0
 10
13.51821864034074
 20
121.1407844073149
 30
0.0
 10
12.85553437815768
 20
121.1407844073149
 30
0.0
 10
12.31832264034071
 20
120.6035726694976
 30
0.0
 10
12.31832264034071
 20
119.9408884073145
 30
0.0
 10
12.31832264034071
 20
119.2782041451315
 30
0.0
 10
12.85553437815768
 20
118.7409924073148
 30
0.0
 10
13.51821864034074
 20
118.7409924073148
 30
0.0
  0
ENDBLK
  5
573
330
570
100
AcDbEntity
  8
0
100
AcDbBlockEnd
  0
BLOCK
  5
577
330
575
100
AcDbEntity
  8
0
100
AcDbBlockBegin
  2
BLOCK_141
 70
     0
 10
0.0
 20
0.0
 30
0.0
  3
BLOCK_141
  1

  0
SPLINE
  5
579
330
575
100
AcDbEntity
  8
0
 62
     7
100
AcDbSpline
210
0.0
220
0.0
230
1.0
 70
     8
 71
     3
 72
    11
 73
     7
 74
     0
 42
0.0000000001
 43
0.0000000001
 12
1.0
 22
0.0
 32
0.0
 13
1.0
 23
0.0
 33
0.0
 40
0.0
 40
0.0
 40
0.0
 40
0.0
 40
1.0
 40
1.0
 40
1.0
 40
2.0
 40
2.0
 40
2.0
 40
2.0
 10
16.11841664034077
 20
118.7409924073148
 30
0.0
 10
16.78110090252351
 20
118.7409924073148
 30
0.0
 10
17.31831264034048
 20
119.2782041451315
 30
0.0
 10
17.31831264034048
 20
119.9408884073145
 30
0.0
 10
17.31831264034048
 20
120.6035726694976
 30
0.0
 10
16.78110090252351
 20
121.1407844073149
 30
0.0
 10
16.11841664034077
 20
121.1407844073149
 30
0.0
  0
ENDBLK
  5
578
330
575
100
AcDbEntity
  8
0
100
AcDbBlockEnd
  0
BLOCK
  5
57C
330
57A
100
AcDbEntity
  8
0
100
AcDbBlockBegin
  2
BLOCK_142
 70
     0
 10
0.0
 20
0.0
 30
0.0
  3
BLOCK_142
  1

  0
SPLINE
  5
57E
330
57A
100
AcDbEntity
  8
0
 62
     7
100
AcDbSpline
210
0.0
220
0.0
230
1.0
 70
    27
 71
     3
 72
    11
 73
     7
 74
     0
 42
0.0000000001
 43
0.0000000001
 12
1.0
 22
0.0
 32
0.0
 13
1.0
 23
0.0
 33
0.0
 40
0.0
 40
0.0
 40
0.0
 40
0.0
 40
1.0
 40
1.0
 40
1.0
 40
2.0
 40
2.0
 40
2.0
 40
2.0
 10
16.11841664034077
 20
121.1407844073149
 30
0.0
 10
16.11841664034077
 20
121.1407844073149
 30
0.0
 10
13.51821864034074
 20
121.1407844073149
 30
0.0
 10
13.51821864034074
 20
121.1407844073149
 30
0.0
 10
13.51821864034074
 20
121.1407844073149
 30
0.0
 10
16.11841664034077
 20
121.1407844073149
 30
0.0
 10
16.11841664034077
 20
121.1407844073149
 30
0.0
  0
ENDBLK
  5
57D
330
57A
100
AcDbEntity
  8
0
100
AcDbBlockEnd
  0
BLOCK
  5
581
330
57F
100
AcDbEntity
  8
0
100
AcDbBlockBegin
  2
BLOCK_143
 70
     0
 10
0.0
 20
0.0
 30
0.0
  3
BLOCK_143
  1

  0
SPLINE
  5
583
330
57F
100
AcDbEntity
  8
0
 62
     7
100
AcDbSpline
210
0.0
220
0.0
230
1.0
 70
    27
 71
     3
 72
    11
 73
     7
 74
     0
 42
0.0000000001
 43
0.0000000001
 12
1.0
 22
0.0
 32
0.0
 13
1.0
 23
0.0
 33
0.0
 40
0.0
 40
0.0
 40
0.0
 40
0.0
 40
1.0
 40
1.0
 40
1.0
 40
2.0
 40
2.0
 40
2.0
 40
2.0
 10
16.11841664034077
 20
118.7409924073148
 30
0.0
 10
16.11841664034077
 20
118.7409924073148
 30
0.0
 10
13.51821864034074
 20
118.7409924073148
 30
0.0
 10
13.51821864034074
 20
118.7409924073148
 30
0.0
 10
13.51821864034074
 20
118.7409924073148
 30
0.0
 10
16.11841664034077
 20
118.7409924073148
 30
0.0
 10
16.11841664034077
 20
118.7409924073148
 30
0.0
  0
ENDBLK
  5
582
330
57F
100
AcDbEntity
  8
0
100
AcDbBlockEnd
  0
BLOCK
  5
586
330
584
100
AcDbEntity
  8
0
100
AcDbBlockBegin
  2
BLOCK_144
 70
     0
 10
0.0
 20
0.0
 30
0.0
  3
BLOCK_144
  1

  0
SPLINE
  5
588
330
584
100
AcDbEntity
  8
0
 62
     7
100
AcDbSpline
210
0.0
220
0.0
230
1.0
 70
     8
 71
     3
 72
    11
 73
     7
 74
     0
 42
0.0000000001
 43
0.0000000001
 12
1.0
 22
0.0
 32
0.0
 13
1.0
 23
0.0
 33
0.0
 40
0.0
 40
0.0
 40
0.0
 40
0.0
 40
1.0
 40
1.0
 40
1.0
 40
2.0
 40
2.0
 40
2.0
 40
2.0
 10
113.5305916403405
 20
159.3171114073146
 30
0.0
 10
112.8678372379947
 20
159.3171114073146
 30
0.0
 10
112.3305686403408
 20
158.7798428096607
 30
0.0
 10
112.3305686403408
 20
158.1170884073146
 30
0.0
 10
112.3305686403408
 20
157.4543340049685
 30
0.0
 10
112.8678372379947
 20
156.9170654073146
 30
0.0
 10
113.5305916403405
 20
156.9170654073146
 30
0.0
  0
ENDBLK
  5
587
330
584
100
AcDbEntity
  8
0
100
AcDbBlockEnd
  0
BLOCK
  5
58B
330
589
100
AcDbEntity
  8
0
100
AcDbBlockBegin
  2
BLOCK_145
 70
     0
 10
0.0
 20
0.0
 30
0.0
  3
BLOCK_145
  1

  0
SPLINE
  5
58D
330
589
100
AcDbEntity
  8
0
 62
     7
100
AcDbSpline
210
0.0
220
0.0
230
1.0
 70
     8
 71
     3
 72
    11
 73
     7
 74
     0
 42
0.0000000001
 43
0.0000000001
 12
1.0
 22
0.0
 32
0.0
 13
1.0
 23
0.0
 33
0.0
 40
0.0
 40
0.0
 40
0.0
 40
0.0
 40
1.0
 40
1.0
 40
1.0
 40
2.0
 40
2.0
 40
2.0
 40
2.0
 10
116.1305356403409
 20
156.9170654073146
 30
0.0
 10
116.7932900426867
 20
156.9170654073146
 30
0.0
 10
117.3305586403406
 20
157.4543340049685
 30
0.0
 10
117.3305586403406
 20
158.1170884073146
 30
0.0
 10
117.3305586403406
 20
158.7798428096607
 30
0.0
 10
116.7932900426867
 20
159.3171114073146
 30
0.0
 10
116.1305356403409
 20
159.3171114073146
 30
0.0
  0
ENDBLK
  5
58C
330
589
100
AcDbEntity
  8
0
100
AcDbBlockEnd
  0
BLOCK
  5
590
330
58E
100
AcDbEntity
  8
0
100
AcDbBlockBegin
  2
BLOCK_146
 70
     0
 10
0.0
 20
0.0
 30
0.0
  3
BLOCK_146
  1

  0
SPLINE
  5
592
330
58E
100
AcDbEntity
  8
0
 62
     7
100
AcDbSpline
210
0.0
220
0.0
230
1.0
 70
    27
 71
     3
 72
    11
 73
     7
 74
     0
 42
0.0000000001
 43
0.0000000001
 12
1.0
 22
0.0
 32
0.0
 13
1.0
 23
0.0
 33
0.0
 40
0.0
 40
0.0
 40
0.0
 40
0.0
 40
1.0
 40
1.0
 40
1.0
 40
2.0
 40
2.0
 40
2.0
 40
2.0
 10
116.1305356403409
 20
159.3171114073146
 30
0.0
 10
116.1305356403409
 20
159.3171114073146
 30
0.0
 10
113.5305916403405
 20
159.3171114073146
 30
0.0
 10
113.5305916403405
 20
159.3171114073146
 30
0.0
 10
113.5305916403405
 20
159.3171114073146
 30
0.0
 10
116.1305356403409
 20
159.3171114073146
 30
0.0
 10
116.1305356403409
 20
159.3171114073146
 30
0.0
  0
ENDBLK
  5
591
330
58E
100
AcDbEntity
  8
0
100
AcDbBlockEnd
  0
BLOCK
  5
595
330
593
100
AcDbEntity
  8
0
100
AcDbBlockBegin
  2
BLOCK_147
 70
     0
 10
0.0
 20
0.0
 30
0.0
  3
BLOCK_147
  1

  0
SPLINE
  5
597
330
593
100
AcDbEntity
  8
0
 62
     7
100
AcDbSpline
210
0.0
220
0.0
230
1.0
 70
    27
 71
     3
 72
    11
 73
     7
 74
     0
 42
0.0000000001
 43
0.0000000001
 12
1.0
 22
0.0
 32
0.0
 13
1.0
 23
0.0
 33
0.0
 40
0.0
 40
0.0
 40
0.0
 40
0.0
 40
1.0
 40
1.0
 40
1.0
 40
2.0
 40
2.0
 40
2.0
 40
2.0
 10
116.1305356403409
 20
156.9170654073146
 30
0.0
 10
116.1305356403409
 20
156.9170654073146
 30
0.0
 10
113.5305916403405
 20
156.9170654073146
 30
0.0
 10
113.5305916403405
 20
156.9170654073146
 30
0.0
 10
113.5305916403405
 20
156.9170654073146
 30
0.0
 10
116.1305356403409
 20
156.9170654073146
 30
0.0
 10
116.1305356403409
 20
156.9170654073146
 30
0.0
  0
ENDBLK
  5
596
330
593
100
AcDbEntity
  8
0
100
AcDbBlockEnd
  0
BLOCK
  5
59A
330
598
100
AcDbEntity
  8
0
100
AcDbBlockBegin
  2
BLOCK_148
 70
     0
 10
0.0
 20
0.0
 30
0.0
  3
BLOCK_148
  1

  0
SPLINE
  5
59C
330
598
100
AcDbEntity
  8
0
 62
     7
100
AcDbSpline
210
0.0
220
0.0
230
1.0
 70
     8
 71
     3
 72
    11
 73
     7
 74
     0
 42
0.0000000001
 43
0.0000000001
 12
1.0
 22
0.0
 32
0.0
 13
1.0
 23
0.0
 33
0.0
 40
0.0
 40
0.0
 40
0.0
 40
0.0
 40
1.0
 40
1.0
 40
1.0
 40
2.0
 40
2.0
 40
2.0
 40
2.0
 10
113.5304646403405
 20
159.3169844073146
 30
0.0
 10
112.8677803781575
 20
159.3169844073146
 30
0.0
 10
112.3305686403408
 20
158.7797726694977
 30
0.0
 10
112.3305686403408
 20
158.1170884073146
 30
0.0
 10
112.3305686403408
 20
157.4544041451315
 30
0.0
 10
112.8677803781575
 20
156.9171924073146
 30
0.0
 10
113.5304646403405
 20
156.9171924073146
 30
0.0
  0
ENDBLK
  5
59B
330
598
100
AcDbEntity
  8
0
100
AcDbBlockEnd
  0
BLOCK
  5
59F
330
59D
100
AcDbEntity
  8
0
100
AcDbBlockBegin
  2
BLOCK_149
 70
     0
 10
0.0
 20
0.0
 30
0.0
  3
BLOCK_149
  1

  0
SPLINE
  5
5A1
330
59D
100
AcDbEntity
  8
0
 62
     7
100
AcDbSpline
210
0.0
220
0.0
230
1.0
 70
     8
 71
     3
 72
    11
 73
     7
 74
     0
 42
0.0000000001
 43
0.0000000001
 12
1.0
 22
0.0
 32
0.0
 13
1.0
 23
0.0
 33
0.0
 40
0.0
 40
0.0
 40
0.0
 40
0.0
 40
1.0
 40
1.0
 40
1.0
 40
2.0
 40
2.0
 40
2.0
 40
2.0
 10
116.1306626403409
 20
156.9171924073146
 30
0.0
 10
116.7933469025233
 20
156.9171924073146
 30
0.0
 10
117.3305586403406
 20
157.4544041451315
 30
0.0
 10
117.3305586403406
 20
158.1170884073146
 30
0.0
 10
117.3305586403406
 20
158.7797726694977
 30
0.0
 10
116.7933469025233
 20
159.3169844073146
 30
0.0
 10
116.1306626403409
 20
159.3169844073146
 30
0.0
  0
ENDBLK
  5
5A0
330
59D
100
AcDbEntity
  8
0
100
AcDbBlockEnd
  0
BLOCK
  5
5A4
330
5A2
100
AcDbEntity
  8
0
100
AcDbBlockBegin
  2
BLOCK_150
 70
     0
 10
0.0
 20
0.0
 30
0.0
  3
BLOCK_150
  1

  0
SPLINE
  5
5A6
330
5A2
100
AcDbEntity
  8
0
 62
     7
100
AcDbSpline
210
0.0
220
0.0
230
1.0
 70
    27
 71
     3
 72
    11
 73
     7
 74
     0
 42
0.0000000001
 43
0.0000000001
 12
1.0
 22
0.0
 32
0.0
 13
1.0
 23
0.0
 33
0.0
 40
0.0
 40
0.0
 40
0.0
 40
0.0
 40
1.0
 40
1.0
 40
1.0
 40
2.0
 40
2.0
 40
2.0
 40
2.0
 10
116.1306626403409
 20
159.3169844073146
 30
0.0
 10
116.1306626403409
 20
159.3169844073146
 30
0.0
 10
113.5304646403405
 20
159.3169844073146
 30
0.0
 10
113.5304646403405
 20
159.3169844073146
 30
0.0
 10
113.5304646403405
 20
159.3169844073146
 30
0.0
 10
116.1306626403409
 20
159.3169844073146
 30
0.0
 10
116.1306626403409
 20
159.3169844073146
 30
0.0
  0
ENDBLK
  5
5A5
330
5A2
100
AcDbEntity
  8
0
100
AcDbBlockEnd
  0
BLOCK
  5
5A9
330
5A7
100
AcDbEntity
  8
0
100
AcDbBlockBegin
  2
BLOCK_151
 70
     0
 10
0.0
 20
0.0
 30
0.0
  3
BLOCK_151
  1

  0
SPLINE
  5
5AB
330
5A7
100
AcDbEntity
  8
0
 62
     7
100
AcDbSpline
210
0.0
220
0.0
230
1.0
 70
    27
 71
     3
 72
    11
 73
     7
 74
     0
 42
0.0000000001
 43
0.0000000001
 12
1.0
 22
0.0
 32
0.0
 13
1.0
 23
0.0
 33
0.0
 40
0.0
 40
0.0
 40
0.0
 40
0.0
 40
1.0
 40
1.0
 40
1.0
 40
2.0
 40
2.0
 40
2.0
 40
2.0
 10
116.1306626403409
 20
156.9171924073146
 30
0.0
 10
116.1306626403409
 20
156.9171924073146
 30
0.0
 10
113.5304646403405
 20
156.9171924073146
 30
0.0
 10
113.5304646403405
 20
156.9171924073146
 30
0.0
 10
113.5304646403405
 20
156.9171924073146
 30
0.0
 10
116.1306626403409
 20
156.9171924073146
 30
0.0
 10
116.1306626403409
 20
156.9171924073146
 30
0.0
  0
ENDBLK
  5
5AA
330
5A7
100
AcDbEntity
  8
0
100
AcDbBlockEnd
  0
ENDSEC
  0
SECTION
  2
ENTITIES
  0
INSERT
  5
41
330
1F
100
AcDbEntity
  8
0
100
AcDbBlockReference
  2
BLOCK_2
 10
0.0
 20
0.0
 30
0.0
  0
INSERT
  5
4C
330
1F
100
AcDbEntity
  8
0
100
AcDbBlockReference
  2
BLOCK_3
 10
0.0
 20
0.0
 30
0.0
  0
INSERT
  5
57
330
1F
100
AcDbEntity
  8
0
100
AcDbBlockReference
  2
BLOCK_4
 10
0.0
 20
0.0
 30
0.0
  0
INSERT
  5
62
330
1F
100
AcDbEntity
  8
0
100
AcDbBlockReference
  2
BLOCK_5
 10
0.0
 20
0.0
 30
0.0
  0
INSERT
  5
6D
330
1F
100
AcDbEntity
  8
0
100
AcDbBlockReference
  2
BLOCK_6
 10
0.0
 20
0.0
 30
0.0
  0
INSERT
  5
78
330
1F
100
AcDbEntity
  8
0
100
AcDbBlockReference
  2
BLOCK_7
 10
0.0
 20
0.0
 30
0.0
  0
INSERT
  5
83
330
1F
100
AcDbEntity
  8
0
100
AcDbBlockReference
  2
BLOCK_8
 10
0.0
 20
0.0
 30
0.0
  0
INSERT
  5
8E
330
1F
100
AcDbEntity
  8
0
100
AcDbBlockReference
  2
BLOCK_9
 10
0.0
 20
0.0
 30
0.0
  0
INSERT
  5
99
330
1F
100
AcDbEntity
  8
0
100
AcDbBlockReference
  2
BLOCK_10
 10
0.0
 20
0.0
 30
0.0
  0
INSERT
  5
A4
330
1F
100
AcDbEntity
  8
0
100
AcDbBlockReference
  2
BLOCK_11
 10
0.0
 20
0.0
 30
0.0
  0
INSERT
  5
AF
330
1F
100
AcDbEntity
  8
0
100
AcDbBlockReference
  2
BLOCK_12
 10
0.0
 20
0.0
 30
0.0
  0
INSERT
  5
BA
330
1F
100
AcDbEntity
  8
0
100
AcDbBlockReference
  2
BLOCK_13
 10
0.0
 20
0.0
 30
0.0
  0
INSERT
  5
C5
330
1F
100
AcDbEntity
  8
0
100
AcDbBlockReference
  2
BLOCK_14
 10
0.0
 20
0.0
 30
0.0
  0
INSERT
  5
D0
330
1F
100
AcDbEntity
  8
0
100
AcDbBlockReference
  2
BLOCK_15
 10
0.0
 20
0.0
 30
0.0
  0
INSERT
  5
DB
330
1F
100
AcDbEntity
  8
0
100
AcDbBlockReference
  2
BLOCK_16
 10
0.0
 20
0.0
 30
0.0
  0
INSERT
  5
E6
330
1F
100
AcDbEntity
  8
0
100
AcDbBlockReference
  2
BLOCK_17
 10
0.0
 20
0.0
 30
0.0
  0
INSERT
  5
F1
330
1F
100
AcDbEntity
  8
0
100
AcDbBlockReference
  2
BLOCK_18
 10
0.0
 20
0.0
 30
0.0
  0
INSERT
  5
FC
330
1F
100
AcDbEntity
  8
0
100
AcDbBlockReference
  2
BLOCK_19
 10
0.0
 20
0.0
 30
0.0
  0
INSERT
  5
107
330
1F
100
AcDbEntity
  8
0
100
AcDbBlockReference
  2
BLOCK_20
 10
0.0
 20
0.0
 30
0.0
  0
INSERT
  5
112
330
1F
100
AcDbEntity
  8
0
100
AcDbBlockReference
  2
BLOCK_21
 10
0.0
 20
0.0
 30
0.0
  0
INSERT
  5
11D
330
1F
100
AcDbEntity
  8
0
100
AcDbBlockReference
  2
BLOCK_22
 10
0.0
 20
0.0
 30
0.0
  0
INSERT
  5
128
330
1F
100
AcDbEntity
  8
0
100
AcDbBlockReference
  2
BLOCK_23
 10
0.0
 20
0.0
 30
0.0
  0
INSERT
  5
133
330
1F
100
AcDbEntity
  8
0
100
AcDbBlockReference
  2
BLOCK_24
 10
0.0
 20
0.0
 30
0.0
  0
INSERT
  5
13E
330
1F
100
AcDbEntity
  8
0
100
AcDbBlockReference
  2
BLOCK_25
 10
0.0
 20
0.0
 30
0.0
  0
INSERT
  5
149
330
1F
100
AcDbEntity
  8
0
100
AcDbBlockReference
  2
BLOCK_26
 10
0.0
 20
0.0
 30
0.0
  0
INSERT
  5
154
330
1F
100
AcDbEntity
  8
0
100
AcDbBlockReference
  2
BLOCK_27
 10
0.0
 20
0.0
 30
0.0
  0
INSERT
  5
15F
330
1F
100
AcDbEntity
  8
0
100
AcDbBlockReference
  2
BLOCK_28
 10
0.0
 20
0.0
 30
0.0
  0
INSERT
  5
16A
330
1F
100
AcDbEntity
  8
0
100
AcDbBlockReference
  2
BLOCK_29
 10
0.0
 20
0.0
 30
0.0
  0
INSERT
  5
175
330
1F
100
AcDbEntity
  8
0
100
AcDbBlockReference
  2
BLOCK_30
 10
0.0
 20
0.0
 30
0.0
  0
INSERT
  5
180
330
1F
100
AcDbEntity
  8
0
100
AcDbBlockReference
  2
BLOCK_31
 10
0.0
 20
0.0
 30
0.0
  0
INSERT
  5
18B
330
1F
100
AcDbEntity
  8
0
100
AcDbBlockReference
  2
BLOCK_32
 10
0.0
 20
0.0
 30
0.0
  0
INSERT
  5
196
330
1F
100
AcDbEntity
  8
0
100
AcDbBlockReference
  2
BLOCK_33
 10
0.0
 20
0.0
 30
0.0
  0
INSERT
  5
1C1
330
1F
100
AcDbEntity
  8
0
100
AcDbBlockReference
  2
BLOCK_34
 10
0.0
 20
0.0
 30
0.0
  0
INSERT
  5
1CC
330
1F
100
AcDbEntity
  8
0
100
AcDbBlockReference
  2
BLOCK_35
 10
0.0
 20
0.0
 30
0.0
  0
INSERT
  5
1D7
330
1F
100
AcDbEntity
  8
0
100
AcDbBlockReference
  2
BLOCK_36
 10
0.0
 20
0.0
 30
0.0
  0
INSERT
  5
1E2
330
1F
100
AcDbEntity
  8
0
100
AcDbBlockReference
  2
BLOCK_37
 10
0.0
 20
0.0
 30
0.0
  0
INSERT
  5
1ED
330
1F
100
AcDbEntity
  8
0
100
AcDbBlockReference
  2
BLOCK_38
 10
0.0
 20
0.0
 30
0.0
  0
INSERT
  5
1F8
330
1F
100
AcDbEntity
  8
0
100
AcDbBlockReference
  2
BLOCK_39
 10
0.0
 20
0.0
 30
0.0
  0
INSERT
  5
203
330
1F
100
AcDbEntity
  8
0
100
AcDbBlockReference
  2
BLOCK_40
 10
0.0
 20
0.0
 30
0.0
  0
INSERT
  5
20E
330
1F
100
AcDbEntity
  8
0
100
AcDbBlockReference
  2
BLOCK_41
 10
0.0
 20
0.0
 30
0.0
  0
INSERT
  5
219
330
1F
100
AcDbEntity
  8
0
100
AcDbBlockReference
  2
BLOCK_42
 10
0.0
 20
0.0
 30
0.0
  0
INSERT
  5
224
330
1F
100
AcDbEntity
  8
0
100
AcDbBlockReference
  2
BLOCK_43
 10
0.0
 20
0.0
 30
0.0
  0
INSERT
  5
22F
330
1F
100
AcDbEntity
  8
0
100
AcDbBlockReference
  2
BLOCK_44
 10
0.0
 20
0.0
 30
0.0
  0
INSERT
  5
23A
330
1F
100
AcDbEntity
  8
0
100
AcDbBlockReference
  2
BLOCK_45
 10
0.0
 20
0.0
 30
0.0
  0
INSERT
  5
245
330
1F
100
AcDbEntity
  8
0
100
AcDbBlockReference
  2
BLOCK_46
 10
0.0
 20
0.0
 30
0.0
  0
INSERT
  5
250
330
1F
100
AcDbEntity
  8
0
100
AcDbBlockReference
  2
BLOCK_47
 10
0.0
 20
0.0
 30
0.0
  0
INSERT
  5
25B
330
1F
100
AcDbEntity
  8
0
100
AcDbBlockReference
  2
BLOCK_48
 10
0.0
 20
0.0
 30
0.0
  0
INSERT
  5
266
330
1F
100
AcDbEntity
  8
0
100
AcDbBlockReference
  2
BLOCK_49
 10
0.0
 20
0.0
 30
0.0
  0
INSERT
  5
271
330
1F
100
AcDbEntity
  8
0
100
AcDbBlockReference
  2
BLOCK_50
 10
0.0
 20
0.0
 30
0.0
  0
INSERT
  5
27C
330
1F
100
AcDbEntity
  8
0
100
AcDbBlockReference
  2
BLOCK_51
 10
0.0
 20
0.0
 30
0.0
  0
INSERT
  5
287
330
1F
100
AcDbEntity
  8
0
100
AcDbBlockReference
  2
BLOCK_52
 10
0.0
 20
0.0
 30
0.0
  0
INSERT
  5
292
330
1F
100
AcDbEntity
  8
0
100
AcDbBlockReference
  2
BLOCK_53
 10
0.0
 20
0.0
 30
0.0
  0
INSERT
  5
29D
330
1F
100
AcDbEntity
  8
0
100
AcDbBlockReference
  2
BLOCK_54
 10
0.0
 20
0.0
 30
0.0
  0
INSERT
  5
2A8
330
1F
100
AcDbEntity
  8
0
100
AcDbBlockReference
  2
BLOCK_55
 10
0.0
 20
0.0
 30
0.0
  0
INSERT
  5
2B3
330
1F
100
AcDbEntity
  8
0
100
AcDbBlockReference
  2
BLOCK_56
 10
0.0
 20
0.0
 30
0.0
  0
INSERT
  5
2BE
330
1F
100
AcDbEntity
  8
0
100
AcDbBlockReference
  2
BLOCK_57
 10
0.0
 20
0.0
 30
0.0
  0
INSERT
  5
2C9
330
1F
100
AcDbEntity
  8
0
100
AcDbBlockReference
  2
BLOCK_58
 10
0.0
 20
0.0
 30
0.0
  0
INSERT
  5
2D4
330
1F
100
AcDbEntity
  8
0
100
AcDbBlockReference
  2
BLOCK_59
 10
0.0
 20
0.0
 30
0.0
  0
INSERT
  5
2DF
330
1F
100
AcDbEntity
  8
0
100
AcDbBlockReference
  2
BLOCK_60
 10
0.0
 20
0.0
 30
0.0
  0
INSERT
  5
2EA
330
1F
100
AcDbEntity
  8
0
100
AcDbBlockReference
  2
BLOCK_61
 10
0.0
 20
0.0
 30
0.0
  0
INSERT
  5
2F5
330
1F
100
AcDbEntity
  8
0
100
AcDbBlockReference
  2
BLOCK_62
 10
0.0
 20
0.0
 30
0.0
  0
INSERT
  5
320
330
1F
100
AcDbEntity
  8
0
100
AcDbBlockReference
  2
BLOCK_63
 10
0.0
 20
0.0
 30
0.0
  0
INSERT
  5
32B
330
1F
100
AcDbEntity
  8
0
100
AcDbBlockReference
  2
BLOCK_64
 10
0.0
 20
0.0
 30
0.0
  0
INSERT
  5
336
330
1F
100
AcDbEntity
  8
0
100
AcDbBlockReference
  2
BLOCK_65
 10
0.0
 20
0.0
 30
0.0
  0
INSERT
  5
341
330
1F
100
AcDbEntity
  8
0
100
AcDbBlockReference
  2
BLOCK_66
 10
0.0
 20
0.0
 30
0.0
  0
INSERT
  5
34C
330
1F
100
AcDbEntity
  8
0
100
AcDbBlockReference
  2
BLOCK_67
 10
0.0
 20
0.0
 30
0.0
  0
INSERT
  5
357
330
1F
100
AcDbEntity
  8
0
100
AcDbBlockReference
  2
BLOCK_68
 10
0.0
 20
0.0
 30
0.0
  0
INSERT
  5
362
330
1F
100
AcDbEntity
  8
0
100
AcDbBlockReference
  2
BLOCK_69
 10
0.0
 20
0.0
 30
0.0
  0
INSERT
  5
36D
330
1F
100
AcDbEntity
  8
0
100
AcDbBlockReference
  2
BLOCK_70
 10
0.0
 20
0.0
 30
0.0
  0
INSERT
  5
378
330
1F
100
AcDbEntity
  8
0
100
AcDbBlockReference
  2
BLOCK_71
 10
0.0
 20
0.0
 30
0.0
  0
INSERT
  5
383
330
1F
100
AcDbEntity
  8
0
100
AcDbBlockReference
  2
BLOCK_72
 10
0.0
 20
0.0
 30
0.0
  0
INSERT
  5
38E
330
1F
100
AcDbEntity
  8
0
100
AcDbBlockReference
  2
BLOCK_73
 10
0.0
 20
0.0
 30
0.0
  0
INSERT
  5
399
330
1F
100
AcDbEntity
  8
0
100
AcDbBlockReference
  2
BLOCK_74
 10
0.0
 20
0.0
 30
0.0
  0
INSERT
  5
3A4
330
1F
100
AcDbEntity
  8
0
100
AcDbBlockReference
  2
BLOCK_75
 10
0.0
 20
0.0
 30
0.0
  0
INSERT
  5
3AF
330
1F
100
AcDbEntity
  8
0
100
AcDbBlockReference
  2
BLOCK_76
 10
0.0
 20
0.0
 30
0.0
  0
INSERT
  5
3DA
330
1F
100
AcDbEntity
  8
0
100
AcDbBlockReference
  2
BLOCK_77
 10
0.0
 20
0.0
 30
0.0
  0
INSERT
  5
3E5
330
1F
100
AcDbEntity
  8
0
100
AcDbBlockReference
  2
BLOCK_78
 10
0.0
 20
0.0
 30
0.0
  0
INSERT
  5
3F0
330
1F
100
AcDbEntity
  8
0
100
AcDbBlockReference
  2
BLOCK_79
 10
0.0
 20
0.0
 30
0.0
  0
INSERT
  5
3FB
330
1F
100
AcDbEntity
  8
0
100
AcDbBlockReference
  2
BLOCK_80
 10
0.0
 20
0.0
 30
0.0
  0
INSERT
  5
426
330
1F
100
AcDbEntity
  8
0
100
AcDbBlockReference
  2
BLOCK_81
 10
0.0
 20
0.0
 30
0.0
  0
INSERT
  5
431
330
1F
100
AcDbEntity
  8
0
100
AcDbBlockReference
  2
BLOCK_82
 10
0.0
 20
0.0
 30
0.0
  0
INSERT
  5
43C
330
1F
100
AcDbEntity
  8
0
100
AcDbBlockReference
  2
BLOCK_83
 10
0.0
 20
0.0
 30
0.0
  0
INSERT
  5
447
330
1F
100
AcDbEntity
  8
0
100
AcDbBlockReference
  2
BLOCK_84
 10
0.0
 20
0.0
 30
0.0
  0
INSERT
  5
452
330
1F
100
AcDbEntity
  8
0
100
AcDbBlockReference
  2
BLOCK_85
 10
0.0
 20
0.0
 30
0.0
  0
INSERT
  5
45D
330
1F
100
AcDbEntity
  8
0
100
AcDbBlockReference
  2
BLOCK_86
 10
0.0
 20
0.0
 30
0.0
  0
INSERT
  5
468
330
1F
100
AcDbEntity
  8
0
100
AcDbBlockReference
  2
BLOCK_87
 10
0.0
 20
0.0
 30
0.0
  0
INSERT
  5
46D
330
1F
100
AcDbEntity
  8
0
100
AcDbBlockReference
  2
BLOCK_88
 10
0.0
 20
0.0
 30
0.0
  0
INSERT
  5
472
330
1F
100
AcDbEntity
  8
0
100
AcDbBlockReference
  2
BLOCK_89
 10
0.0
 20
0.0
 30
0.0
  0
INSERT
  5
477
330
1F
100
AcDbEntity
  8
0
100
AcDbBlockReference
  2
BLOCK_90
 10
0.0
 20
0.0
 30
0.0
  0
INSERT
  5
47C
330
1F
100
AcDbEntity
  8
0
100
AcDbBlockReference
  2
BLOCK_91
 10
0.0
 20
0.0
 30
0.0
  0
INSERT
  5
481
330
1F
100
AcDbEntity
  8
0
100
AcDbBlockReference
  2
BLOCK_92
 10
0.0
 20
0.0
 30
0.0
  0
INSERT
  5
486
330
1F
100
AcDbEntity
  8
0
100
AcDbBlockReference
  2
BLOCK_93
 10
0.0
 20
0.0
 30
0.0
  0
INSERT
  5
48B
330
1F
100
AcDbEntity
  8
0
100
AcDbBlockReference
  2
BLOCK_94
 10
0.0
 20
0.0
 30
0.0
  0
INSERT
  5
490
330
1F
100
AcDbEntity
  8
0
100
AcDbBlockReference
  2
BLOCK_95
 10
0.0
 20
0.0
 30
0.0
  0
INSERT
  5
495
330
1F
100
AcDbEntity
  8
0
100
AcDbBlockReference
  2
BLOCK_96
 10
0.0
 20
0.0
 30
0.0
  0
INSERT
  5
49A
330
1F
100
AcDbEntity
  8
0
100
AcDbBlockReference
  2
BLOCK_97
 10
0.0
 20
0.0
 30
0.0
  0
INSERT
  5
49F
330
1F
100
AcDbEntity
  8
0
100
AcDbBlockReference
  2
BLOCK_98
 10
0.0
 20
0.0
 30
0.0
  0
INSERT
  5
4A4
330
1F
100
AcDbEntity
  8
0
100
AcDbBlockReference
  2
BLOCK_99
 10
0.0
 20
0.0
 30
0.0
  0
INSERT
  5
4A9
330
1F
100
AcDbEntity
  8
0
100
AcDbBlockReference
  2
BLOCK_100
 10
0.0
 20
0.0
 30
0.0
  0
INSERT
  5
4AE
330
1F
100
AcDbEntity
  8
0
100
AcDbBlockReference
  2
BLOCK_101
 10
0.0
 20
0.0
 30
0.0
  0
INSERT
  5
4B3
330
1F
100
AcDbEntity
  8
0
100
AcDbBlockReference
  2
BLOCK_102
 10
0.0
 20
0.0
 30
0.0
  0
INSERT
  5
4B8
330
1F
100
AcDbEntity
  8
0
100
AcDbBlockReference
  2
BLOCK_103
 10
0.0
 20
0.0
 30
0.0
  0
INSERT
  5
4BD
330
1F
100
AcDbEntity
  8
0
100
AcDbBlockReference
  2
BLOCK_104
 10
0.0
 20
0.0
 30
0.0
  0
INSERT
  5
4C2
330
1F
100
AcDbEntity
  8
0
100
AcDbBlockReference
  2
BLOCK_105
 10
0.0
 20
0.0
 30
0.0
  0
INSERT
  5
4C7
330
1F
100
AcDbEntity
  8
0
100
AcDbBlockReference
  2
BLOCK_106
 10
0.0
 20
0.0
 30
0.0
  0
INSERT
  5
4CC
330
1F
100
AcDbEntity
  8
0
100
AcDbBlockReference
  2
BLOCK_107
 10
0.0
 20
0.0
 30
0.0
  0
INSERT
  5
4D1
330
1F
100
AcDbEntity
  8
0
100
AcDbBlockReference
  2
BLOCK_108
 10
0.0
 20
0.0
 30
0.0
  0
INSERT
  5
4D6
330
1F
100
AcDbEntity
  8
0
100
AcDbBlockReference
  2
BLOCK_109
 10
0.0
 20
0.0
 30
0.0
  0
INSERT
  5
4DB
330
1F
100
AcDbEntity
  8
0
100
AcDbBlockReference
  2
BLOCK_110
 10
0.0
 20
0.0
 30
0.0
  0
INSERT
  5
4E0
330
1F
100
AcDbEntity
  8
0
100
AcDbBlockReference
  2
BLOCK_111
 10
0.0
 20
0.0
 30
0.0
  0
INSERT
  5
4E5
330
1F
100
AcDbEntity
  8
0
100
AcDbBlockReference
  2
BLOCK_112
 10
0.0
 20
0.0
 30
0.0
  0
INSERT
  5
4EA
330
1F
100
AcDbEntity
  8
0
100
AcDbBlockReference
  2
BLOCK_113
 10
0.0
 20
0.0
 30
0.0
  0
INSERT
  5
4EF
330
1F
100
AcDbEntity
  8
0
100
AcDbBlockReference
  2
BLOCK_114
 10
0.0
 20
0.0
 30
0.0
  0
INSERT
  5
4F4
330
1F
100
AcDbEntity
  8
0
100
AcDbBlockReference
  2
BLOCK_115
 10
0.0
 20
0.0
 30
0.0
  0
INSERT
  5
4F9
330
1F
100
AcDbEntity
  8
0
100
AcDbBlockReference
  2
BLOCK_116
 10
0.0
 20
0.0
 30
0.0
  0
INSERT
  5
4FE
330
1F
100
AcDbEntity
  8
0
100
AcDbBlockReference
  2
BLOCK_117
 10
0.0
 20
0.0
 30
0.0
  0
INSERT
  5
503
330
1F
100
AcDbEntity
  8
0
100
AcDbBlockReference
  2
BLOCK_118
 10
0.0
 20
0.0
 30
0.0
  0
INSERT
  5
508
330
1F
100
AcDbEntity
  8
0
100
AcDbBlockReference
  2
BLOCK_119
 10
0.0
 20
0.0
 30
0.0
  0
INSERT
  5
50D
330
1F
100
AcDbEntity
  8
0
100
AcDbBlockReference
  2
BLOCK_120
 10
0.0
 20
0.0
 30
0.0
  0
INSERT
  5
512
330
1F
100
AcDbEntity
  8
0
100
AcDbBlockReference
  2
BLOCK_121
 10
0.0
 20
0.0
 30
0.0
  0
INSERT
  5
517
330
1F
100
AcDbEntity
  8
0
100
AcDbBlockReference
  2
BLOCK_122
 10
0.0
 20
0.0
 30
0.0
  0
INSERT
  5
51C
330
1F
100
AcDbEntity
  8
0
100
AcDbBlockReference
  2
BLOCK_123
 10
0.0
 20
0.0
 30
0.0
  0
INSERT
  5
521
330
1F
100
AcDbEntity
  8
0
100
AcDbBlockReference
  2
BLOCK_124
 10
0.0
 20
0.0
 30
0.0
  0
INSERT
  5
526
330
1F
100
AcDbEntity
  8
0
100
AcDbBlockReference
  2
BLOCK_125
 10
0.0
 20
0.0
 30
0.0
  0
INSERT
  5
52B
330
1F
100
AcDbEntity
  8
0
100
AcDbBlockReference
  2
BLOCK_126
 10
0.0
 20
0.0
 30
0.0
  0
INSERT
  5
530
330
1F
100
AcDbEntity
  8
0
100
AcDbBlockReference
  2
BLOCK_127
 10
0.0
 20
0.0
 30
0.0
  0
INSERT
  5
535
330
1F
100
AcDbEntity
  8
0
100
AcDbBlockReference
  2
BLOCK_128
 10
0.0
 20
0.0
 30
0.0
  0
INSERT
  5
53A
330
1F
100
AcDbEntity
  8
0
100
AcDbBlockReference
  2
BLOCK_129
 10
0.0
 20
0.0
 30
0.0
  0
INSERT
  5
53F
330
1F
100
AcDbEntity
  8
0
100
AcDbBlockReference
  2
BLOCK_130
 10
0.0
 20
0.0
 30
0.0
  0
INSERT
  5
544
330
1F
100
AcDbEntity
  8
0
100
AcDbBlockReference
  2
BLOCK_131
 10
0.0
 20
0.0
 30
0.0
  0
INSERT
  5
549
330
1F
100
AcDbEntity
  8
0
100
AcDbBlockReference
  2
BLOCK_132
 10
0.0
 20
0.0
 30
0.0
  0
INSERT
  5
54E
330
1F
100
AcDbEntity
  8
0
100
AcDbBlockReference
  2
BLOCK_133
 10
0.0
 20
0.0
 30
0.0
  0
INSERT
  5
553
330
1F
100
AcDbEntity
  8
0
100
AcDbBlockReference
  2
BLOCK_134
 10
0.0
 20
0.0
 30
0.0
  0
INSERT
  5
558
330
1F
100
AcDbEntity
  8
0
100
AcDbBlockReference
  2
BLOCK_135
 10
0.0
 20
0.0
 30
0.0
  0
INSERT
  5
55D
330
1F
100
AcDbEntity
  8
0
100
AcDbBlockReference
  2
BLOCK_136
 10
0.0
 20
0.0
 30
0.0
  0
INSERT
  5
562
330
1F
100
AcDbEntity
  8
0
100
AcDbBlockReference
  2
BLOCK_137
 10
0.0
 20
0.0
 30
0.0
  0
INSERT
  5
567
330
1F
100
AcDbEntity
  8
0
100
AcDbBlockReference
  2
BLOCK_138
 10
0.0
 20
0.0
 30
0.0
  0
INSERT
  5
56C
330
1F
100
AcDbEntity
  8
0
100
AcDbBlockReference
  2
BLOCK_139
 10
0.0
 20
0.0
 30
0.0
  0
INSERT
  5
571
330
1F
100
AcDbEntity
  8
0
100
AcDbBlockReference
  2
BLOCK_140
 10
0.0
 20
0.0
 30
0.0
  0
INSERT
  5
576
330
1F
100
AcDbEntity
  8
0
100
AcDbBlockReference
  2
BLOCK_141
 10
0.0
 20
0.0
 30
0.0
  0
INSERT
  5
57B
330
1F
100
AcDbEntity
  8
0
100
AcDbBlockReference
  2
BLOCK_142
 10
0.0
 20
0.0
 30
0.0
  0
INSERT
  5
580
330
1F
100
AcDbEntity
  8
0
100
AcDbBlockReference
  2
BLOCK_143
 10
0.0
 20
0.0
 30
0.0
  0
INSERT
  5
585
330
1F
100
AcDbEntity
  8
0
100
AcDbBlockReference
  2
BLOCK_144
 10
0.0
 20
0.0
 30
0.0
  0
INSERT
  5
58A
330
1F
100
AcDbEntity
  8
0
100
AcDbBlockReference
  2
BLOCK_145
 10
0.0
 20
0.0
 30
0.0
  0
INSERT
  5
58F
330
1F
100
AcDbEntity
  8
0
100
AcDbBlockReference
  2
BLOCK_146
 10
0.0
 20
0.0
 30
0.0
  0
INSERT
  5
594
330
1F
100
AcDbEntity
  8
0
100
AcDbBlockReference
  2
BLOCK_147
 10
0.0
 20
0.0
 30
0.0
  0
INSERT
  5
599
330
1F
100
AcDbEntity
  8
0
100
AcDbBlockReference
  2
BLOCK_148
 10
0.0
 20
0.0
 30
0.0
  0
INSERT
  5
59E
330
1F
100
AcDbEntity
  8
0
100
AcDbBlockReference
  2
BLOCK_149
 10
0.0
 20
0.0
 30
0.0
  0
INSERT
  5
5A3
330
1F
100
AcDbEntity
  8
0
100
AcDbBlockReference
  2
BLOCK_150
 10
0.0
 20
0.0
 30
0.0
  0
INSERT
  5
5A8
330
1F
100
AcDbEntity
  8
0
100
AcDbBlockReference
  2
BLOCK_151
 10
0.0
 20
0.0
 30
0.0
  0
ENDSEC
  0
SECTION
  2
OBJECTS
  0
DICTIONARY
  5
C
330
0
100
AcDbDictionary
  3
ACAD_GROUP
350
D
  3
ACAD_LAYOUT
350
1A
  3
ACAD_MATERIAL
350
3B
  3
ACAD_MLEADERSTYLE
350
5AE
  3
ACAD_MLINESTYLE
350
17
  3
ACAD_PLOTSETTINGS
350
19
  3
ACAD_VISUALSTYLE
350
2A
  3
ACDBVARIABLEDICTIONARY
350
5AC
1001
ACAD
1000
TREAT_AS_HARD
1070
     0
  0
DICTIONARY
  5
D
102
{ACAD_REACTORS
330
C
102
}
330
C
100
AcDbDictionary
1001
ACAD
1000
TREAT_AS_HARD
1070
     0
  0
DICTIONARY
  5
1A
102
{ACAD_REACTORS
330
C
102
}
330
C
100
AcDbDictionary
1001
ACAD
1000
TREAT_AS_HARD
1070
     0
  0
DICTIONARY
  5
3B
102
{ACAD_REACTORS
330
C
102
}
330
C
100
AcDbDictionary
  3
BYBLOCK
350
3D
  3
BYLAYER
350
3C
  3
GLOBAL
350
3E
1001
ACAD
1000
TREAT_AS_HARD
1070
     0
  0
DICTIONARY
  5
5AE
102
{ACAD_REACTORS
330
C
102
}
330
C
100
AcDbDictionary
1001
ACAD
1000
TREAT_AS_HARD
1070
     0
  0
DICTIONARY
  5
17
102
{ACAD_REACTORS
330
C
102
}
330
C
100
AcDbDictionary
  3
STANDARD
350
18
1001
ACAD
1000
TREAT_AS_HARD
1070
     0
  0
DICTIONARY
  5
19
102
{ACAD_REACTORS
330
C
102
}
330
C
100
AcDbDictionary
1001
ACAD
1000
TREAT_AS_HARD
1070
     0
  0
DICTIONARY
  5
2A
102
{ACAD_REACTORS
330
C
102
}
330
C
100
AcDbDictionary
  3
2DWIREFRAME
350
2F
  3
3D_HIDDEN
350
31
  3
3DWIREFRAME
350
30
  3
BASIC
350
32
  3
BRIGHTEN
350
36
  3
COLORCHANGE
350
3A
  3
CONCEPTUAL
350
34
  3
DIM
350
35
  3
FACEPATTERN
350
39
  3
FLAT
350
2B
  3
FLATWITHEDGES
350
2C
  3
GOURAUD
350
2D
  3
GOURAUDWITHEDGES
350
2E
  3
LINEPATTERN
350
38
  3
REALISTIC
350
33
  3
THICKEN
350
37
1001
ACAD
1000
TREAT_AS_HARD
1070
     0
  0
DICTIONARY
  5
5AC
102
{ACAD_REACTORS
330
C
102
}
330
C
100
AcDbDictionary
  3
DIMASSOC
350
5AF
  3
HIDETEXT
350
5B0
1001
ACAD
1000
TREAT_AS_HARD
1070
     0
  0
MATERIAL
  5
3D
102
{ACAD_REACTORS
330
3B
102
}
102
{ACAD_XDICTIONARY
360
5B3
102
}
330
3B
100
AcDbMaterial
  1
ByBlock
  0
MATERIAL
  5
3C
102
{ACAD_REACTORS
330
3B
102
}
102
{ACAD_XDICTIONARY
360
5B1
102
}
330
3B
100
AcDbMaterial
  1
ByLayer
  0
MATERIAL
  5
3E
102
{ACAD_REACTORS
330
3B
102
}
102
{ACAD_XDICTIONARY
360
5B5
102
}
330
3B
100
AcDbMaterial
  1
Global
  0
MLINESTYLE
  5
18
102
{ACAD_REACTORS
330
17
102
}
330
17
100
AcDbMlineStyle
  2
Standard
 70
     0
  3

 62
   256
 51
90.0
 52
90.0
 71
     2
 49
0.5
 62
   256
  6
BYLAYER
 49
-0.5
 62
   256
  6
BYLAYER
  0
ACAD_PROXY_OBJECT
  5
2F
102
{ACAD_REACTORS
330
2A
102
}
330
2A
100
AcDbZombieObject
 90
      499
 91
      501
 93
      436
310
42CC9915DA5C99599C985B595049028333333333333E3BF0000000000000FB0107901411070040501600405405064090741402480A0340
1001
ACAD
1000
AcDbSavedByObjectVersion
1070
     0
  0
ACAD_PROXY_OBJECT
  5
31
102
{ACAD_REACTORS
330
2A
102
}
330
2A
100
AcDbZombieObject
 90
      499
 91
      501
 93
      500
310
424CD108121A5919195B90640502408333333333333E3BF0000000000000FB01079024090700405020000000000001110200405405064090740C02480A0340
1001
ACAD
1000
AcDbSavedByObjectVersion
1070
     0
  0
ACAD_PROXY_OBJECT
  5
30
102
{ACAD_REACTORS
330
2A
102
}
330
2A
100
AcDbZombieObject
 90
      499
 91
      501
 93
      436
310
42CCD915DA5C99599C985B595059028333333333333E3BF0000000000000FB0107901411070040501600405405064090741402480A0340
1001
ACAD
1000
AcDbSavedByObjectVersion
1070
     0
  0
ACAD_PROXY_OBJECT
  5
32
102
{ACAD_REACTORS
330
2A
102
}
330
2A
100
AcDbZombieObject
 90
      499
 91
      501
 93
      388
310
4150985CDA58D07406404333333333333E3BF0000000000000FB0107A41107004050150841D405064090741402480A0350
1001
ACAD
1000
AcDbSavedByObjectVersion
1070
     0
  0
ACAD_PROXY_OBJECT
  5
36
102
{ACAD_REACTORS
330
2A
102
}
330
2A
100
AcDbZombieObject
 90
      499
 91
      501
 93
      428
310
42109C9A59DA1D195B90C409028333333333333E3BF0000000000000FB010790141107004050150841D405064090741402480A029950
1001
ACAD
1000
AcDbSavedByObjectVersion
1070
     0
  0
ACAD_PROXY_OBJECT
  5
3A
102
{ACAD_REACTORS
330
2A
102
}
330
2A
100
AcDbZombieObject
 90
      499
 91
      501
 93
      452
310
42D0DBDB1BDC90DA185B99D95104090240C333333333333E3BF0000000000000FB0108901411070040501508421405064090741402480A0350
1001
ACAD
1000
AcDbSavedByObjectVersion
1070
     0
  0
ACAD_PROXY_OBJECT
  5
34
102
{ACAD_REACTORS
330
2A
102
}
330
2A
100
AcDbZombieObject
 90
      499
 91
      501
 93
      500
310
4290DBDB98D95C1D1D585B10940D028333333333333E3BF0000000000000FB0107902409070040501000000000000111010841D405064090740C02480A0340
1001
ACAD
1000
AcDbSavedByObjectVersion
1070
     0
  0
ACAD_PROXY_OBJECT
  5
35
102
{ACAD_REACTORS
330
2A
102
}
330
2A
100
AcDbZombieObject
 90
      499
 91
      501
 93
      412
310
40D11A5B50B409028333333333333E3BF0000000000000FB010790141107004050150841D405064090741402480A02677FFFFFD0
1001
ACAD
1000
AcDbSavedByObjectVersion
1070
     0
  0
ACAD_PROXY_OBJECT
  5
39
102
{ACAD_REACTORS
330
2A
102
}
330
2A
100
AcDbZombieObject
 90
      499
 91
      501
 93
      444
310
42D19858D95C185D1D195C9B90F409028333333333333E3BF0000000000000FB010790141107004050150841D405064090741402480A0350
1001
ACAD
1000
AcDbSavedByObjectVersion
1070
     0
  0
ACAD_PROXY_OBJECT
  5
2B
102
{ACAD_REACTORS
330
2A
102
}
330
2A
100
AcDbZombieObject
 90
      499
 91
      501
 93
      388
310
41119B185D240901404333333333333E3BF0000000000000F9010740A41107004050150841D405064090741402480A1B50
1001
ACAD
1000
AcDbSavedByObjectVersion
1070
     0
  0
ACAD_PROXY_OBJECT
  5
2C
102
{ACAD_REACTORS
330
2A
102
}
330
2A
100
AcDbZombieObject
 90
      499
 91
      501
 93
      476
310
43519B185D15DA5D1A115919D95CD0140901404333333333333E3BF0000000000000F9010740901411070040501600405405064090741402480A1B50
1001
ACAD
1000
AcDbSavedByObjectVersion
1070
     0
  0
ACAD_PROXY_OBJECT
  5
2D
102
{ACAD_REACTORS
330
2A
102
}
330
2A
100
AcDbZombieObject
 90
      499
 91
      501
 93
      412
310
41D1DBDD5C985D5910240902404333333333333E3BF0000000000000F9010740A411070040501641D405064090741402480A1B50
1001
ACAD
1000
AcDbSavedByObjectVersion
1070
     0
  0
ACAD_PROXY_OBJECT
  5
2E
102
{ACAD_REACTORS
330
2A
102
}
330
2A
100
AcDbZombieObject
 90
      499
 91
      501
 93
      500
310
4411DBDD5C985D5915DA5D1A115919D95CD0340902404333333333333E3BF0000000000000F9010740901411070040501600405405064090741402480A1B50
1001
ACAD
1000
AcDbSavedByObjectVersion
1070
     0
  0
ACAD_PROXY_OBJECT
  5
38
102
{ACAD_REACTORS
330
2A
102
}
330
2A
100
AcDbZombieObject
 90
      499
 91
      501
 93
      444
310
42D31A5B995C185D1D195C9B90E409028333333333333E3BF0000000000000FB010790141107004050750841D405064090741402483A0350
1001
ACAD
1000
AcDbSavedByObjectVersion
1070
     0
  0
ACAD_PROXY_OBJECT
  5
33
102
{ACAD_REACTORS
330
2A
102
}
330
2A
100
AcDbZombieObject
 90
      499
 91
      501
 93
      420
310
425499585B1A5CDD1A58D08409028333333333333E3BF0000000000000FB01079019070040501508421405064090741402480A1B40
1001
ACAD
1000
AcDbSavedByObjectVersion
1070
     0
  0
ACAD_PROXY_OBJECT
  5
37
102
{ACAD_REACTORS
330
2A
102
}
330
2A
100
AcDbZombieObject
 90
      499
 91
      501
 93
      412
310
41D51A1A58DAD95B90D409028333333333333E3BF0000000000000FB010790141107004050150C41D405064090741402480A0350
1001
ACAD
1000
AcDbSavedByObjectVersion
1070
     0
  0
DICTIONARYVAR
  5
5AF
102
{ACAD_REACTORS
330
5AC
102
}
330
5AC
100
DictionaryVariables
280
     0
  1
2
  0
DICTIONARYVAR
  5
5B0
102
{ACAD_REACTORS
330
5AC
102
}
330
5AC
100
DictionaryVariables
280
     0
  1
1
  0
DICTIONARY
  5
5B3
330
3D
100
AcDbDictionary
  3
ACAD_XREC_ROUNDTRIP
360
5B4
1001
ACAD
1000
TREAT_AS_HARD
1070
     1
  0
DICTIONARY
  5
5B1
330
3C
100
AcDbDictionary
  3
ACAD_XREC_ROUNDTRIP
360
5B2
1001
ACAD
1000
TREAT_AS_HARD
1070
     1
  0
DICTIONARY
  5
5B5
330
3E
100
AcDbDictionary
  3
ACAD_XREC_ROUNDTRIP
360
5B6
1001
ACAD
1000
TREAT_AS_HARD
1070
     1
  0
XRECORD
  5
5B4
102
{ACAD_REACTORS
330
5B3
102
}
330
5B3
100
AcDbXrecord
102
MATERIAL
148
0.0
149
0.0
149
0.0
 93
        0
 94
      127
282
     0
 72
     1
 77
     1
171
     1
175
     1
179
     1
273
     0
  0
XRECORD
  5
5B2
102
{ACAD_REACTORS
330
5B1
102
}
330
5B1
100
AcDbXrecord
102
MATERIAL
148
0.0
149
0.0
149
0.0
 93
        0
 94
      127
282
     0
 72
     1
 77
     1
171
     1
175
     1
179
     1
273
     0
  0
XRECORD
  5
5B6
102
{ACAD_REACTORS
330
5B5
102
}
330
5B5
100
AcDbXrecord
102
MATERIAL
148
0.0
149
0.0
149
0.0
 93
        0
 94
      127
282
     0
 72
     1
 77
     1
171
     1
175
     1
179
     1
273
     0
  0
ENDSEC
  0
EOF
