  0
SECTION
  2
HEADER
  9
$ANGBASE
  50
0.0
  9
$ANGDIR
  70
1
  9
$MEASUREMENT
  70
1
  0
ENDSEC
  0
SECTION
  2
TABLES
  0
TABLE
  2
LTYPE
  70
4
  0
LTYPE
  5
40F
  2
CONTINUOUS
  70
0
  3
Solid line
  72
65
  73
0
  40
0.0
  0
LTYPE
  5
410
  2
DASHDOT
 70
0
  3
Dash Dot ____ _ ____ _
 72
65
 73
4
 40
2.0
 49
1.25
 49
-0.25
 49
0.25
 49
-0.25
  0
LTYPE
  5
411
  2
DASHED
 70
0
  3
Dashed __ __ __ __ __
 72
65
 73
2
 40
0.75
 49
0.5
 49
-0.25
  0
LTYPE
  5
43B
  2
DOTTED
 70
0
  3
Dotted .  .  .  .
 72
65
 73
2
 40
0.2
 49
0.0
 49
-0.2
  0
ENDTAB
  0
TABLE
  2
STYLE
  70
4
  0
STYLE
  2
KICAD
  70
0
  40
0
  41
1
  42
1
  50
0
  71
0
  3
isocp.shx
  0
STYLE
  2
KICADB
  70
0
  40
0
  41
1
  42
1
  50
0
  71
0
  3
isocp.shx
  0
STYLE
  2
KICADI
  70
0
  40
0
  41
1
  42
1
  50
15
  71
0
  3
isocp.shx
  0
STYLE
  2
KICADBI
  70
0
  40
0
  41
1
  42
1
  50
15
  71
0
  3
isocp.shx
  0
ENDTAB
  0
TABLE
  2
LAYER
  70
1
  0
LAYER
  2
BLACK
  70
0
  62
7
  6
CONTINUOUS
  0
ENDTAB
  0
ENDSEC
  0
SECTION
  2
ENTITIES
0
CIRCLE
8
BLACK
10
295.275
20
-76.115
40
2
0
CIRCLE
8
BLACK
10
295.275
20
-114.215
40
2
0
CIRCLE
8
BLACK
10
104.775
20
-114.215
40
2
0
CIRCLE
8
BLACK
10
200.025
20
-114.215
40
2
0
CIRCLE
8
BLACK
10
200.025
20
-95.165
40
2
0
CIRCLE
8
BLACK
10
200.025
20
-76.115
40
2
0
CIRCLE
8
BLACK
10
104.775
20
-76.115
40
2
0
CIRCLE
8
BLACK
10
192.881
20
-95.165
40
1.35
0
CIRCLE
8
BLACK
10
104.775
20
-59.4462
40
1.35
0
CIRCLE
8
BLACK
10
88.1063
20
-130.884
40
1.35
0
CIRCLE
8
BLACK
10
311.944
20
-130.884
40
1.35
0
CIRCLE
8
BLACK
10
309.561
20
-78.4916
40
1.35
0
LINE
8
BLACK
6
CONTINUOUS
10
268.944
20
-111.69
11
254.943
21
-111.69
0
LINE
8
BLACK
6
CONTINUOUS
10
295.424
20
-116.741
11
309.424
21
-116.741
0
LINE
8
BLACK
6
CONTINUOUS
10
86.3164
20
-57.6506
11
86.4321
21
-57.5444
0
LINE
8
BLACK
6
CONTINUOUS
10
90.6365
20
-92.6401
11
90.6365
21
-78.6409
0
LINE
8
BLACK
6
CONTINUOUS
10
112.068
20
-130.74
11
112.068
21
-116.741
0
LINE
8
BLACK
6
CONTINUOUS
10
211.794
20
-97.6909
11
211.794
21
-111.69
0
LINE
8
BLACK
6
CONTINUOUS
10
197.505
20
-73.5901
11
183.505
21
-73.5901
0
LINE
8
BLACK
6
CONTINUOUS
10
236.738
20
-129.27
11
236.738
21
-126.04
0
LINE
8
BLACK
6
CONTINUOUS
10
221.319
20
-92.6401
11
207.318
21
-92.6401
0
LINE
8
BLACK
6
CONTINUOUS
10
207.318
20
-78.6409
11
221.319
21
-78.6409
0
LINE
8
BLACK
6
CONTINUOUS
10
278.757
20
-59.5909
11
292.756
21
-59.5909
0
LINE
8
BLACK
6
CONTINUOUS
10
164.457
20
-73.5901
11
164.457
21
-59.5909
0
LINE
8
BLACK
6
CONTINUOUS
10
245.418
20
-92.6401
11
245.418
21
-78.6409
0
LINE
8
BLACK
6
CONTINUOUS
10
206.188
20
-116.971
11
206.188
21
-123.24
0
LINE
8
BLACK
6
CONTINUOUS
10
216.556
20
-73.5901
11
202.556
21
-73.5901
0
LINE
8
BLACK
6
CONTINUOUS
10
207.912
20
-116.971
11
206.188
21
-116.971
0
LINE
8
BLACK
6
CONTINUOUS
10
214.462
20
-116.741
11
214.462
21
-121.44
0
LINE
8
BLACK
6
CONTINUOUS
10
145.118
20
-78.6409
11
145.118
21
-92.6401
0
LINE
8
BLACK
6
CONTINUOUS
10
121.593
20
-97.6909
11
135.594
21
-97.6909
0
LINE
8
BLACK
6
CONTINUOUS
10
236.738
20
-123.24
11
236.738
21
-116.971
0
LINE
8
BLACK
6
CONTINUOUS
10
312.799
20
-57.12
11
312.95
21
-57.1627
0
LINE
8
BLACK
6
CONTINUOUS
10
104.637
20
-116.741
11
104.637
21
-130.74
0
LINE
8
BLACK
6
CONTINUOUS
10
313.098
20
-57.2177
11
313.24
21
-57.2826
0
LINE
8
BLACK
6
CONTINUOUS
10
197.505
20
-59.5909
11
197.505
21
-73.5901
0
LINE
8
BLACK
6
CONTINUOUS
10
86.4321
20
-57.5444
11
86.5548
21
-57.4467
0
LINE
8
BLACK
6
CONTINUOUS
10
221.607
20
-73.5901
11
221.607
21
-59.5909
0
LINE
8
BLACK
6
CONTINUOUS
10
147.498
20
-116.741
11
147.498
21
-130.74
0
LINE
8
BLACK
6
CONTINUOUS
10
85.8285
20
-58.4457
11
85.8836
21
-58.2997
0
LINE
8
BLACK
6
CONTINUOUS
10
86.8235
20
-57.2826
11
86.9654
21
-57.2177
0
LINE
8
BLACK
6
CONTINUOUS
10
314.276
20
-58.5985
11
314.308
21
-58.7516
0
LINE
8
BLACK
6
CONTINUOUS
10
197.793
20
-111.69
11
197.793
21
-97.6909
0
LINE
8
BLACK
6
CONTINUOUS
10
228.463
20
-126.04
11
229.987
21
-126.04
0
LINE
8
BLACK
6
CONTINUOUS
10
166.837
20
-121.44
11
165.312
21
-121.44
0
LINE
8
BLACK
6
CONTINUOUS
10
150.168
20
-78.6409
11
164.168
21
-78.6409
0
LINE
8
BLACK
6
CONTINUOUS
10
229.987
20
-116.971
11
229.987
21
-121.44
0
LINE
8
BLACK
6
CONTINUOUS
10
145.407
20
-73.5901
11
145.407
21
-59.5909
0
LINE
8
BLACK
6
CONTINUOUS
10
287.994
20
-97.6909
11
287.994
21
-111.69
0
LINE
8
BLACK
6
CONTINUOUS
10
211.213
20
-116.971
11
211.213
21
-115.771
0
LINE
8
BLACK
6
CONTINUOUS
10
85.8836
20
-132.031
11
85.8285
21
-131.884
0
LINE
8
BLACK
6
CONTINUOUS
10
254.943
20
-111.69
11
254.943
21
-97.6909
0
LINE
8
BLACK
6
CONTINUOUS
10
165.312
20
-126.04
11
166.837
21
-126.04
0
LINE
8
BLACK
6
CONTINUOUS
10
192.744
20
-97.6909
11
192.744
21
-111.69
0
LINE
8
BLACK
6
CONTINUOUS
10
207.318
20
-92.6401
11
207.318
21
-78.6409
0
LINE
8
BLACK
6
CONTINUOUS
10
182.362
20
-129.27
11
189.113
21
-129.27
0
LINE
8
BLACK
6
CONTINUOUS
10
86.2102
20
-57.7663
11
86.3164
21
-57.6506
0
LINE
8
BLACK
6
CONTINUOUS
10
312.333
20
-133.265
11
87.7316
21
-133.266
0
LINE
8
BLACK
6
CONTINUOUS
10
85.7376
20
-131.422
11
85.7307
21
-131.267
0
LINE
8
BLACK
6
CONTINUOUS
10
182.362
20
-126.04
11
182.362
21
-129.27
0
LINE
8
BLACK
6
CONTINUOUS
10
226.368
20
-78.6409
11
240.369
21
-78.6409
0
LINE
8
BLACK
6
CONTINUOUS
10
85.7858
20
-58.5985
11
85.8285
21
-58.4457
0
LINE
8
BLACK
6
CONTINUOUS
10
237.562
20
-123.24
11
236.738
21
-123.24
0
LINE
8
BLACK
6
CONTINUOUS
10
264.468
20
-78.6409
11
278.469
21
-78.6409
0
LINE
8
BLACK
6
CONTINUOUS
10
189.113
20
-126.04
11
189.937
21
-126.04
0
LINE
8
BLACK
6
CONTINUOUS
10
314.326
20
-58.9086
11
314.332
21
-59.0656
0
LINE
8
BLACK
6
CONTINUOUS
10
259.707
20
-59.5909
11
273.706
21
-59.5909
0
LINE
8
BLACK
6
CONTINUOUS
10
212.938
20
-116.971
11
211.213
21
-116.971
0
LINE
8
BLACK
6
CONTINUOUS
10
154.643
20
-111.69
11
140.643
21
-111.69
0
LINE
8
BLACK
6
CONTINUOUS
10
202.269
20
-92.6401
11
188.268
21
-92.6401
0
LINE
8
BLACK
6
CONTINUOUS
10
202.556
20
-59.5909
11
216.556
21
-59.5909
0
LINE
8
BLACK
6
CONTINUOUS
10
287.994
20
-130.74
11
273.993
21
-130.74
0
LINE
8
BLACK
6
CONTINUOUS
10
228.463
20
-130.74
11
228.463
21
-126.04
0
LINE
8
BLACK
6
CONTINUOUS
10
135.594
20
-97.6909
11
135.594
21
-111.69
0
LINE
8
BLACK
6
CONTINUOUS
10
112.068
20
-92.6401
11
112.068
21
-78.6409
0
LINE
8
BLACK
6
CONTINUOUS
10
140.643
20
-97.6909
11
154.643
21
-97.6909
0
LINE
8
BLACK
6
CONTINUOUS
10
107.307
20
-73.5901
11
107.307
21
-59.5909
0
LINE
8
BLACK
6
CONTINUOUS
10
90.6365
20
-78.6409
11
104.637
21
-78.6409
0
LINE
8
BLACK
6
CONTINUOUS
10
192.744
20
-111.69
11
178.743
21
-111.69
0
LINE
8
BLACK
6
CONTINUOUS
10
312.644
20
-57.0897
11
312.799
21
-57.12
0
LINE
8
BLACK
6
CONTINUOUS
10
236.738
20
-126.04
11
237.562
21
-126.04
0
LINE
8
BLACK
6
CONTINUOUS
10
159.406
20
-73.5901
11
145.407
21
-73.5901
0
LINE
8
BLACK
6
CONTINUOUS
10
158.563
20
-116.971
11
158.563
21
-123.24
0
LINE
8
BLACK
6
CONTINUOUS
10
133.499
20
-130.74
11
133.499
21
-116.741
0
LINE
8
BLACK
6
CONTINUOUS
10
235.606
20
-73.5901
11
221.607
21
-73.5901
0
LINE
8
BLACK
6
CONTINUOUS
10
313.747
20
-57.6506
11
313.853
21
-57.7663
0
LINE
8
BLACK
6
CONTINUOUS
10
230.844
20
-111.69
11
216.843
21
-111.69
0
LINE
8
BLACK
6
CONTINUOUS
10
104.637
20
-130.74
11
90.6365
21
-130.74
0
LINE
8
BLACK
6
CONTINUOUS
10
85.7858
20
-131.732
11
85.7555
21
-131.578
0
LINE
8
BLACK
6
CONTINUOUS
10
164.168
20
-92.6401
11
150.168
21
-92.6401
0
LINE
8
BLACK
6
CONTINUOUS
10
292.756
20
-73.5901
11
278.757
21
-73.5901
0
LINE
8
BLACK
6
CONTINUOUS
10
206.188
20
-129.27
11
212.938
21
-129.27
0
LINE
8
BLACK
6
CONTINUOUS
10
95.399
20
-97.6909
11
109.398
21
-97.6909
0
LINE
8
BLACK
6
CONTINUOUS
10
135.594
20
-111.69
11
121.593
21
-111.69
0
LINE
8
BLACK
6
CONTINUOUS
10
160.287
20
-116.971
11
158.563
21
-116.971
0
LINE
8
BLACK
6
CONTINUOUS
10
187.388
20
-115.771
11
184.087
21
-115.771
0
LINE
8
BLACK
6
CONTINUOUS
10
312.489
20
-133.259
11
312.333
21
-133.265
0
LINE
8
BLACK
6
CONTINUOUS
10
311.806
20
-73.5901
11
297.807
21
-73.5901
0
LINE
8
BLACK
6
CONTINUOUS
10
164.168
20
-78.6409
11
164.168
21
-92.6401
0
LINE
8
BLACK
6
CONTINUOUS
10
86.8235
20
-133.048
11
86.6857
21
-132.971
0
LINE
8
BLACK
6
CONTINUOUS
10
304.663
20
-78.6409
11
304.663
21
-92.6401
0
LINE
8
BLACK
6
CONTINUOUS
10
182.362
20
-116.971
11
182.362
21
-121.44
0
LINE
8
BLACK
6
CONTINUOUS
10
236.738
20
-116.971
11
235.013
21
-116.971
0
LINE
8
BLACK
6
CONTINUOUS
10
229.987
20
-129.27
11
236.738
21
-129.27
0
LINE
8
BLACK
6
CONTINUOUS
10
184.087
20
-115.771
11
184.087
21
-116.971
0
LINE
8
BLACK
6
CONTINUOUS
10
212.938
20
-126.04
11
214.462
21
-126.04
0
LINE
8
BLACK
6
CONTINUOUS
10
86.0256
20
-58.0199
11
86.1124
21
-57.8887
0
LINE
8
BLACK
6
CONTINUOUS
10
287.994
20
-111.69
11
273.993
21
-111.69
0
LINE
8
BLACK
6
CONTINUOUS
10
314.235
20
-58.4457
11
314.276
21
-58.5985
0
LINE
8
BLACK
6
CONTINUOUS
10
88.2566
20
-59.5909
11
102.256
21
-59.5909
0
LINE
8
BLACK
6
CONTINUOUS
10
102.256
20
-73.5901
11
88.2566
21
-73.5901
0
LINE
8
BLACK
6
CONTINUOUS
10
309.424
20
-111.69
11
295.424
21
-111.69
0
LINE
8
BLACK
6
CONTINUOUS
10
295.424
20
-111.69
11
295.424
21
-97.6909
0
LINE
8
BLACK
6
CONTINUOUS
10
88.2566
20
-73.5901
11
88.2566
21
-59.5909
0
LINE
8
BLACK
6
CONTINUOUS
10
189.113
20
-129.27
11
189.113
21
-126.04
0
LINE
8
BLACK
6
CONTINUOUS
10
254.656
20
-59.5909
11
254.656
21
-73.5901
0
LINE
8
BLACK
6
CONTINUOUS
10
254.943
20
-97.6909
11
268.944
21
-97.6909
0
LINE
8
BLACK
6
CONTINUOUS
10
87.1115
20
-57.1627
11
87.2644
21
-57.12
0
LINE
8
BLACK
6
CONTINUOUS
10
133.499
20
-116.741
11
147.498
21
-116.741
0
LINE
8
BLACK
6
CONTINUOUS
10
214.462
20
-130.74
11
228.463
21
-130.74
0
LINE
8
BLACK
6
CONTINUOUS
10
235.893
20
-97.6909
11
249.894
21
-97.6909
0
LINE
8
BLACK
6
CONTINUOUS
10
95.399
20
-111.69
11
95.399
21
-97.6909
0
LINE
8
BLACK
6
CONTINUOUS
10
314.115
20
-132.173
11
314.038
21
-132.31
0
LINE
8
BLACK
6
CONTINUOUS
10
165.312
20
-116.971
11
163.587
21
-116.971
0
LINE
8
BLACK
6
CONTINUOUS
10
313.951
20
-132.441
11
313.853
21
-132.565
0
LINE
8
BLACK
6
CONTINUOUS
10
229.987
20
-126.04
11
229.987
21
-129.27
0
LINE
8
BLACK
6
CONTINUOUS
10
290.662
20
-92.6401
11
290.662
21
-78.6409
0
LINE
8
BLACK
6
CONTINUOUS
10
87.2644
20
-57.12
11
87.4174
21
-57.0897
0
LINE
8
BLACK
6
CONTINUOUS
10
166.837
20
-126.04
11
166.837
21
-130.74
0
LINE
8
BLACK
6
CONTINUOUS
10
188.268
20
-92.6401
11
188.268
21
-78.6409
0
LINE
8
BLACK
6
CONTINUOUS
10
126.069
20
-116.741
11
126.069
21
-130.74
0
LINE
8
BLACK
6
CONTINUOUS
10
87.4174
20
-57.0897
11
87.5745
21
-57.0717
0
LINE
8
BLACK
6
CONTINUOUS
10
86.6857
20
-57.3595
11
86.8235
21
-57.2826
0
LINE
8
BLACK
6
CONTINUOUS
10
313.098
20
-133.113
11
312.95
21
-133.168
0
LINE
8
BLACK
6
CONTINUOUS
10
235.013
20
-115.771
11
231.712
21
-115.771
0
LINE
8
BLACK
6
CONTINUOUS
10
87.7316
20
-57.065
11
312.333
21
-57.065
0
LINE
8
BLACK
6
CONTINUOUS
10
104.637
20
-78.6409
11
104.637
21
-92.6401
0
LINE
8
BLACK
6
CONTINUOUS
10
312.644
20
-133.241
11
312.489
21
-133.259
0
LINE
8
BLACK
6
CONTINUOUS
10
314.276
20
-131.732
11
314.235
21
-131.884
0
LINE
8
BLACK
6
CONTINUOUS
10
188.268
20
-78.6409
11
202.269
21
-78.6409
0
LINE
8
BLACK
6
CONTINUOUS
10
273.706
20
-59.5909
11
273.706
21
-73.5901
0
LINE
8
BLACK
6
CONTINUOUS
10
169.218
20
-92.6401
11
169.218
21
-78.6409
0
LINE
8
BLACK
6
CONTINUOUS
10
86.0256
20
-132.31
11
85.9484
21
-132.173
0
LINE
8
BLACK
6
CONTINUOUS
10
202.269
20
-78.6409
11
202.269
21
-92.6401
0
LINE
8
BLACK
6
CONTINUOUS
10
86.3164
20
-132.681
11
86.2102
21
-132.565
0
LINE
8
BLACK
6
CONTINUOUS
10
184.087
20
-116.971
11
182.362
21
-116.971
0
LINE
8
BLACK
6
CONTINUOUS
10
221.607
20
-59.5909
11
235.606
21
-59.5909
0
LINE
8
BLACK
6
CONTINUOUS
10
158.563
20
-129.27
11
165.312
21
-129.27
0
LINE
8
BLACK
6
CONTINUOUS
10
240.369
20
-92.6401
11
226.368
21
-92.6401
0
LINE
8
BLACK
6
CONTINUOUS
10
158.563
20
-126.04
11
158.563
21
-129.27
0
LINE
8
BLACK
6
CONTINUOUS
10
231.712
20
-115.771
11
231.712
21
-116.971
0
LINE
8
BLACK
6
CONTINUOUS
10
313.507
20
-57.4467
11
313.631
21
-57.5444
0
LINE
8
BLACK
6
CONTINUOUS
10
290.662
20
-78.6409
11
304.663
21
-78.6409
0
LINE
8
BLACK
6
CONTINUOUS
10
314.332
20
-131.267
11
314.326
21
-131.422
0
LINE
8
BLACK
6
CONTINUOUS
10
226.368
20
-92.6401
11
226.368
21
-78.6409
0
LINE
8
BLACK
6
CONTINUOUS
10
173.694
20
-97.6909
11
173.694
21
-111.69
0
LINE
8
BLACK
6
CONTINUOUS
10
235.606
20
-59.5909
11
235.606
21
-73.5901
0
LINE
8
BLACK
6
CONTINUOUS
10
183.505
20
-59.5909
11
197.505
21
-59.5909
0
LINE
8
BLACK
6
CONTINUOUS
10
313.853
20
-132.565
11
313.747
21
-132.681
0
LINE
8
BLACK
6
CONTINUOUS
10
312.489
20
-57.0717
11
312.644
21
-57.0897
0
LINE
8
BLACK
6
CONTINUOUS
10
312.95
20
-57.1627
11
313.098
21
-57.2177
0
LINE
8
BLACK
6
CONTINUOUS
10
86.1124
20
-132.441
11
86.0256
21
-132.31
0
LINE
8
BLACK
6
CONTINUOUS
10
313.507
20
-132.884
11
313.376
21
-132.971
0
LINE
8
BLACK
6
CONTINUOUS
10
173.694
20
-111.69
11
159.693
21
-111.69
0
LINE
8
BLACK
6
CONTINUOUS
10
107.307
20
-59.5909
11
121.306
21
-59.5909
0
LINE
8
BLACK
6
CONTINUOUS
10
126.069
20
-130.74
11
112.068
21
-130.74
0
LINE
8
BLACK
6
CONTINUOUS
10
126.357
20
-59.5909
11
140.356
21
-59.5909
0
LINE
8
BLACK
6
CONTINUOUS
10
211.213
20
-115.771
11
207.912
21
-115.771
0
LINE
8
BLACK
6
CONTINUOUS
10
313.747
20
-132.681
11
313.631
21
-132.787
0
LINE
8
BLACK
6
CONTINUOUS
10
178.456
20
-59.5909
11
178.456
21
-73.5901
0
LINE
8
BLACK
6
CONTINUOUS
10
189.113
20
-116.971
11
187.388
21
-116.971
0
LINE
8
BLACK
6
CONTINUOUS
10
189.937
20
-126.04
11
189.937
21
-123.24
0
LINE
8
BLACK
6
CONTINUOUS
10
180.837
20
-116.741
11
166.837
21
-116.741
0
LINE
8
BLACK
6
CONTINUOUS
10
85.7376
20
-58.9086
11
85.7555
21
-58.7516
0
LINE
8
BLACK
6
CONTINUOUS
10
87.7316
20
-133.266
11
87.5745
21
-133.259
0
LINE
8
BLACK
6
CONTINUOUS
10
86.4321
20
-132.787
11
86.3164
21
-132.681
0
LINE
8
BLACK
6
CONTINUOUS
10
145.118
20
-92.6401
11
131.118
21
-92.6401
0
LINE
8
BLACK
6
CONTINUOUS
10
112.068
20
-116.741
11
126.069
21
-116.741
0
LINE
8
BLACK
6
CONTINUOUS
10
104.637
20
-92.6401
11
90.6365
21
-92.6401
0
LINE
8
BLACK
6
CONTINUOUS
10
207.912
20
-115.771
11
207.912
21
-116.971
0
LINE
8
BLACK
6
CONTINUOUS
10
304.663
20
-92.6401
11
290.662
21
-92.6401
0
LINE
8
BLACK
6
CONTINUOUS
10
178.743
20
-111.69
11
178.743
21
-97.6909
0
LINE
8
BLACK
6
CONTINUOUS
10
313.853
20
-57.7663
11
313.951
21
-57.8887
0
LINE
8
BLACK
6
CONTINUOUS
10
313.376
20
-132.971
11
313.24
21
-133.048
0
LINE
8
BLACK
6
CONTINUOUS
10
312.799
20
-133.21
11
312.644
21
-133.241
0
LINE
8
BLACK
6
CONTINUOUS
10
178.743
20
-97.6909
11
192.744
21
-97.6909
0
LINE
8
BLACK
6
CONTINUOUS
10
259.419
20
-78.6409
11
259.419
21
-92.6401
0
LINE
8
BLACK
6
CONTINUOUS
10
85.9484
20
-132.173
11
85.8836
21
-132.031
0
LINE
8
BLACK
6
CONTINUOUS
10
147.498
20
-130.74
11
133.499
21
-130.74
0
LINE
8
BLACK
6
CONTINUOUS
10
197.793
20
-97.6909
11
211.794
21
-97.6909
0
LINE
8
BLACK
6
CONTINUOUS
10
189.113
20
-123.24
11
189.113
21
-116.971
0
LINE
8
BLACK
6
CONTINUOUS
10
311.806
20
-59.5909
11
311.806
21
-73.5901
0
LINE
8
BLACK
6
CONTINUOUS
10
140.356
20
-59.5909
11
140.356
21
-73.5901
0
LINE
8
BLACK
6
CONTINUOUS
10
240.369
20
-78.6409
11
240.369
21
-92.6401
0
LINE
8
BLACK
6
CONTINUOUS
10
86.6857
20
-132.971
11
86.5548
21
-132.884
0
LINE
8
BLACK
6
CONTINUOUS
10
90.6365
20
-116.741
11
104.637
21
-116.741
0
LINE
8
BLACK
6
CONTINUOUS
10
249.894
20
-97.6909
11
249.894
21
-111.69
0
LINE
8
BLACK
6
CONTINUOUS
10
214.462
20
-126.04
11
214.462
21
-130.74
0
LINE
8
BLACK
6
CONTINUOUS
10
90.6365
20
-130.74
11
90.6365
21
-116.741
0
LINE
8
BLACK
6
CONTINUOUS
10
205.363
20
-126.04
11
206.188
21
-126.04
0
LINE
8
BLACK
6
CONTINUOUS
10
85.9484
20
-58.1575
11
86.0256
21
-58.0199
0
LINE
8
BLACK
6
CONTINUOUS
10
205.363
20
-123.24
11
205.363
21
-126.04
0
LINE
8
BLACK
6
CONTINUOUS
10
240.657
20
-73.5901
11
240.657
21
-59.5909
0
LINE
8
BLACK
6
CONTINUOUS
10
85.7555
20
-58.7516
11
85.7858
21
-58.5985
0
LINE
8
BLACK
6
CONTINUOUS
10
297.807
20
-73.5901
11
297.807
21
-59.5909
0
LINE
8
BLACK
6
CONTINUOUS
10
85.7307
20
-131.267
11
85.7307
21
-59.0656
0
LINE
8
BLACK
6
CONTINUOUS
10
314.235
20
-131.884
11
314.18
21
-132.031
0
LINE
8
BLACK
6
CONTINUOUS
10
221.319
20
-78.6409
11
221.319
21
-92.6401
0
LINE
8
BLACK
6
CONTINUOUS
10
159.406
20
-59.5909
11
159.406
21
-73.5901
0
LINE
8
BLACK
6
CONTINUOUS
10
145.407
20
-59.5909
11
159.406
21
-59.5909
0
LINE
8
BLACK
6
CONTINUOUS
10
178.456
20
-73.5901
11
164.457
21
-73.5901
0
LINE
8
BLACK
6
CONTINUOUS
10
166.837
20
-116.741
11
166.837
21
-121.44
0
LINE
8
BLACK
6
CONTINUOUS
10
314.18
20
-132.031
11
314.115
21
-132.173
0
LINE
8
BLACK
6
CONTINUOUS
10
259.707
20
-73.5901
11
259.707
21
-59.5909
0
LINE
8
BLACK
6
CONTINUOUS
10
165.312
20
-129.27
11
165.312
21
-126.04
0
LINE
8
BLACK
6
CONTINUOUS
10
230.844
20
-97.6909
11
230.844
21
-111.69
0
LINE
8
BLACK
6
CONTINUOUS
10
295.424
20
-97.6909
11
309.424
21
-97.6909
0
LINE
8
BLACK
6
CONTINUOUS
10
206.188
20
-123.24
11
205.363
21
-123.24
0
LINE
8
BLACK
6
CONTINUOUS
10
159.693
20
-97.6909
11
173.694
21
-97.6909
0
LINE
8
BLACK
6
CONTINUOUS
10
166.837
20
-130.74
11
180.837
21
-130.74
0
LINE
8
BLACK
6
CONTINUOUS
10
228.463
20
-116.741
11
214.462
21
-116.741
0
LINE
8
BLACK
6
CONTINUOUS
10
121.306
20
-73.5901
11
107.307
21
-73.5901
0
LINE
8
BLACK
6
CONTINUOUS
10
278.469
20
-78.6409
11
278.469
21
-92.6401
0
LINE
8
BLACK
6
CONTINUOUS
10
266.563
20
-116.741
11
266.563
21
-130.74
0
LINE
8
BLACK
6
CONTINUOUS
10
126.357
20
-73.5901
11
126.357
21
-59.5909
0
LINE
8
BLACK
6
CONTINUOUS
10
86.2102
20
-132.565
11
86.1124
21
-132.441
0
LINE
8
BLACK
6
CONTINUOUS
10
180.837
20
-126.04
11
182.362
21
-126.04
0
LINE
8
BLACK
6
CONTINUOUS
10
309.424
20
-116.741
11
309.424
21
-130.74
0
LINE
8
BLACK
6
CONTINUOUS
10
112.068
20
-78.6409
11
126.069
21
-78.6409
0
LINE
8
BLACK
6
CONTINUOUS
10
313.951
20
-57.8887
11
314.038
21
-58.0199
0
LINE
8
BLACK
6
CONTINUOUS
10
102.256
20
-59.5909
11
102.256
21
-73.5901
0
LINE
8
BLACK
6
CONTINUOUS
10
169.218
20
-78.6409
11
183.219
21
-78.6409
0
LINE
8
BLACK
6
CONTINUOUS
10
312.95
20
-133.168
11
312.799
21
-133.21
0
LINE
8
BLACK
6
CONTINUOUS
10
109.398
20
-97.6909
11
109.398
21
-111.69
0
LINE
8
BLACK
6
CONTINUOUS
10
165.312
20
-121.44
11
165.312
21
-116.971
0
LINE
8
BLACK
6
CONTINUOUS
10
87.1115
20
-133.168
11
86.9654
21
-133.113
0
LINE
8
BLACK
6
CONTINUOUS
10
313.631
20
-132.787
11
313.507
21
-132.884
0
LINE
8
BLACK
6
CONTINUOUS
10
150.168
20
-92.6401
11
150.168
21
-78.6409
0
LINE
8
BLACK
6
CONTINUOUS
10
259.419
20
-92.6401
11
245.418
21
-92.6401
0
LINE
8
BLACK
6
CONTINUOUS
10
313.24
20
-57.2826
11
313.376
21
-57.3595
0
LINE
8
BLACK
6
CONTINUOUS
10
87.2644
20
-133.21
11
87.1115
21
-133.168
0
LINE
8
BLACK
6
CONTINUOUS
10
157.737
20
-126.04
11
158.563
21
-126.04
0
LINE
8
BLACK
6
CONTINUOUS
10
85.7307
20
-59.0656
11
85.7376
21
-58.9086
0
LINE
8
BLACK
6
CONTINUOUS
10
86.5548
20
-57.4467
11
86.6857
21
-57.3595
0
LINE
8
BLACK
6
CONTINUOUS
10
295.424
20
-130.74
11
295.424
21
-116.741
0
LINE
8
BLACK
6
CONTINUOUS
10
313.376
20
-57.3595
11
313.507
21
-57.4467
0
LINE
8
BLACK
6
CONTINUOUS
10
216.843
20
-111.69
11
216.843
21
-97.6909
0
LINE
8
BLACK
6
CONTINUOUS
10
273.993
20
-97.6909
11
287.994
21
-97.6909
0
LINE
8
BLACK
6
CONTINUOUS
10
216.556
20
-59.5909
11
216.556
21
-73.5901
0
LINE
8
BLACK
6
CONTINUOUS
10
245.418
20
-78.6409
11
259.419
21
-78.6409
0
LINE
8
BLACK
6
CONTINUOUS
10
313.24
20
-133.048
11
313.098
21
-133.113
0
LINE
8
BLACK
6
CONTINUOUS
10
85.7555
20
-131.578
11
85.7376
21
-131.422
0
LINE
8
BLACK
6
CONTINUOUS
10
87.5745
20
-57.0717
11
87.7316
21
-57.065
0
LINE
8
BLACK
6
CONTINUOUS
10
273.993
20
-111.69
11
273.993
21
-97.6909
0
LINE
8
BLACK
6
CONTINUOUS
10
273.706
20
-73.5901
11
259.707
21
-73.5901
0
LINE
8
BLACK
6
CONTINUOUS
10
312.333
20
-57.065
11
312.489
21
-57.0717
0
LINE
8
BLACK
6
CONTINUOUS
10
235.013
20
-116.971
11
235.013
21
-115.771
0
LINE
8
BLACK
6
CONTINUOUS
10
266.563
20
-130.74
11
252.562
21
-130.74
0
LINE
8
BLACK
6
CONTINUOUS
10
160.287
20
-115.771
11
160.287
21
-116.971
0
LINE
8
BLACK
6
CONTINUOUS
10
163.587
20
-116.971
11
163.587
21
-115.771
0
LINE
8
BLACK
6
CONTINUOUS
10
87.4174
20
-133.241
11
87.2644
21
-133.21
0
LINE
8
BLACK
6
CONTINUOUS
10
85.8836
20
-58.2997
11
85.9484
21
-58.1575
0
LINE
8
BLACK
6
CONTINUOUS
10
163.587
20
-115.771
11
160.287
21
-115.771
0
LINE
8
BLACK
6
CONTINUOUS
10
314.332
20
-59.0656
11
314.332
21
-131.267
0
LINE
8
BLACK
6
CONTINUOUS
10
252.562
20
-116.741
11
266.563
21
-116.741
0
LINE
8
BLACK
6
CONTINUOUS
10
189.937
20
-123.24
11
189.113
21
-123.24
0
LINE
8
BLACK
6
CONTINUOUS
10
180.837
20
-130.74
11
180.837
21
-126.04
0
LINE
8
BLACK
6
CONTINUOUS
10
121.593
20
-111.69
11
121.593
21
-97.6909
0
LINE
8
BLACK
6
CONTINUOUS
10
87.5745
20
-133.259
11
87.4174
21
-133.241
0
LINE
8
BLACK
6
CONTINUOUS
10
314.308
20
-58.7516
11
314.326
21
-58.9086
0
LINE
8
BLACK
6
CONTINUOUS
10
216.843
20
-97.6909
11
230.844
21
-97.6909
0
LINE
8
BLACK
6
CONTINUOUS
10
154.643
20
-97.6909
11
154.643
21
-111.69
0
LINE
8
BLACK
6
CONTINUOUS
10
121.306
20
-59.5909
11
121.306
21
-73.5901
0
LINE
8
BLACK
6
CONTINUOUS
10
109.398
20
-111.69
11
95.399
21
-111.69
0
LINE
8
BLACK
6
CONTINUOUS
10
237.562
20
-126.04
11
237.562
21
-123.24
0
LINE
8
BLACK
6
CONTINUOUS
10
211.794
20
-111.69
11
197.793
21
-111.69
0
LINE
8
BLACK
6
CONTINUOUS
10
314.308
20
-131.578
11
314.276
21
-131.732
0
LINE
8
BLACK
6
CONTINUOUS
10
85.8285
20
-131.884
11
85.7858
21
-131.732
0
LINE
8
BLACK
6
CONTINUOUS
10
249.894
20
-111.69
11
235.893
21
-111.69
0
LINE
8
BLACK
6
CONTINUOUS
10
314.18
20
-58.2997
11
314.235
21
-58.4457
0
LINE
8
BLACK
6
CONTINUOUS
10
228.463
20
-121.44
11
228.463
21
-116.741
0
LINE
8
BLACK
6
CONTINUOUS
10
240.657
20
-59.5909
11
254.656
21
-59.5909
0
LINE
8
BLACK
6
CONTINUOUS
10
202.556
20
-73.5901
11
202.556
21
-59.5909
0
LINE
8
BLACK
6
CONTINUOUS
10
183.219
20
-78.6409
11
183.219
21
-92.6401
0
LINE
8
BLACK
6
CONTINUOUS
10
314.326
20
-131.422
11
314.308
21
-131.578
0
LINE
8
BLACK
6
CONTINUOUS
10
86.1124
20
-57.8887
11
86.2102
21
-57.7663
0
LINE
8
BLACK
6
CONTINUOUS
10
254.656
20
-73.5901
11
240.657
21
-73.5901
0
LINE
8
BLACK
6
CONTINUOUS
10
180.837
20
-121.44
11
180.837
21
-116.741
0
LINE
8
BLACK
6
CONTINUOUS
10
187.388
20
-116.971
11
187.388
21
-115.771
0
LINE
8
BLACK
6
CONTINUOUS
10
297.807
20
-59.5909
11
311.806
21
-59.5909
0
LINE
8
BLACK
6
CONTINUOUS
10
252.562
20
-130.74
11
252.562
21
-116.741
0
LINE
8
BLACK
6
CONTINUOUS
10
212.938
20
-129.27
11
212.938
21
-126.04
0
LINE
8
BLACK
6
CONTINUOUS
10
268.944
20
-97.6909
11
268.944
21
-111.69
0
LINE
8
BLACK
6
CONTINUOUS
10
264.468
20
-92.6401
11
264.468
21
-78.6409
0
LINE
8
BLACK
6
CONTINUOUS
10
309.424
20
-97.6909
11
309.424
21
-111.69
0
LINE
8
BLACK
6
CONTINUOUS
10
309.424
20
-130.74
11
295.424
21
-130.74
0
LINE
8
BLACK
6
CONTINUOUS
10
273.993
20
-130.74
11
273.993
21
-116.741
0
LINE
8
BLACK
6
CONTINUOUS
10
231.712
20
-116.971
11
229.987
21
-116.971
0
LINE
8
BLACK
6
CONTINUOUS
10
206.188
20
-126.04
11
206.188
21
-129.27
0
LINE
8
BLACK
6
CONTINUOUS
10
158.563
20
-123.24
11
157.737
21
-123.24
0
LINE
8
BLACK
6
CONTINUOUS
10
86.9654
20
-57.2177
11
87.1115
21
-57.1627
0
LINE
8
BLACK
6
CONTINUOUS
10
131.118
20
-92.6401
11
131.118
21
-78.6409
0
LINE
8
BLACK
6
CONTINUOUS
10
235.893
20
-111.69
11
235.893
21
-97.6909
0
LINE
8
BLACK
6
CONTINUOUS
10
314.038
20
-132.31
11
313.951
21
-132.441
0
LINE
8
BLACK
6
CONTINUOUS
10
183.219
20
-92.6401
11
169.218
21
-92.6401
0
LINE
8
BLACK
6
CONTINUOUS
10
287.994
20
-116.741
11
287.994
21
-130.74
0
LINE
8
BLACK
6
CONTINUOUS
10
314.038
20
-58.0199
11
314.115
21
-58.1575
0
LINE
8
BLACK
6
CONTINUOUS
10
292.756
20
-59.5909
11
292.756
21
-73.5901
0
LINE
8
BLACK
6
CONTINUOUS
10
86.9654
20
-133.113
11
86.8235
21
-133.048
0
LINE
8
BLACK
6
CONTINUOUS
10
140.356
20
-73.5901
11
126.357
21
-73.5901
0
LINE
8
BLACK
6
CONTINUOUS
10
126.069
20
-78.6409
11
126.069
21
-92.6401
0
LINE
8
BLACK
6
CONTINUOUS
10
229.987
20
-121.44
11
228.463
21
-121.44
0
LINE
8
BLACK
6
CONTINUOUS
10
214.462
20
-121.44
11
212.938
21
-121.44
0
LINE
8
BLACK
6
CONTINUOUS
10
278.757
20
-73.5901
11
278.757
21
-59.5909
0
LINE
8
BLACK
6
CONTINUOUS
10
212.938
20
-121.44
11
212.938
21
-116.971
0
LINE
8
BLACK
6
CONTINUOUS
10
278.469
20
-92.6401
11
264.468
21
-92.6401
0
LINE
8
BLACK
6
CONTINUOUS
10
140.643
20
-111.69
11
140.643
21
-97.6909
0
LINE
8
BLACK
6
CONTINUOUS
10
157.737
20
-123.24
11
157.737
21
-126.04
0
LINE
8
BLACK
6
CONTINUOUS
10
126.069
20
-92.6401
11
112.068
21
-92.6401
0
LINE
8
BLACK
6
CONTINUOUS
10
183.505
20
-73.5901
11
183.505
21
-59.5909
0
LINE
8
BLACK
6
CONTINUOUS
10
273.993
20
-116.741
11
287.994
21
-116.741
0
LINE
8
BLACK
6
CONTINUOUS
10
314.115
20
-58.1575
11
314.18
21
-58.2997
0
LINE
8
BLACK
6
CONTINUOUS
10
131.118
20
-78.6409
11
145.118
21
-78.6409
0
LINE
8
BLACK
6
CONTINUOUS
10
164.457
20
-59.5909
11
178.456
21
-59.5909
0
LINE
8
BLACK
6
CONTINUOUS
10
159.693
20
-111.69
11
159.693
21
-97.6909
0
LINE
8
BLACK
6
CONTINUOUS
10
182.362
20
-121.44
11
180.837
21
-121.44
0
LINE
8
BLACK
6
CONTINUOUS
10
313.631
20
-57.5444
11
313.747
21
-57.6506
0
LINE
8
BLACK
6
CONTINUOUS
10
86.5548
20
-132.884
11
86.4321
21
-132.787
  0
ENDSEC
  0
EOF
