  0
SECTION
  2
HEADER
  9
$ACADVER
  1
AC1009
  9
$DWGCODEPAGE
  3
ansi_936
  9
$INSBASE
 10
0.0
 20
0.0
 30
0.0
  9
$EXTMIN
 10
-37.39303335965941
 20
101.0550994073146
 30
0.0
  9
$EXTMAX
 10
248.0013666403407
 20
195.9837894073145
 30
0.0
  9
$LIMMIN
 10
0.0
 20
0.0
  9
$LIMMAX
 10
12.0
 20
9.0
  9
$ORTHOMODE
 70
     0
  9
$REGENMODE
 70
     1
  9
$FILLMODE
 70
     1
  9
$QTEXTMODE
 70
     0
  9
$MIRRTEXT
 70
     1
  9
$DRAGMODE
 70
     2
  9
$LTSCALE
 40
1.0
  9
$OSMODE
 70
    37
  9
$ATTMODE
 70
     1
  9
$TEXTSIZE
 40
0.2
  9
$TRACEWID
 40
0.05
  9
$TEXTSTYLE
  7
STANDARD
  9
$CLAYER
  8
0
  9
$CELTYPE
  6
BYLAYER
  9
$CECOLOR
 62
   256
  9
$DIMSCALE
 40
1.0
  9
$DIMASZ
 40
0.18
  9
$DIMEXO
 40
0.0625
  9
$DIMDLI
 40
0.38
  9
$DIMRND
 40
0.0
  9
$DIMDLE
 40
0.0
  9
$DIMEXE
 40
0.18
  9
$DIMTP
 40
0.0
  9
$DIMTM
 40
0.0
  9
$DIMTXT
 40
0.18
  9
$DIMCEN
 40
0.09
  9
$DIMTSZ
 40
0.0
  9
$DIMTOL
 70
     0
  9
$DIMLIM
 70
     0
  9
$DIMTIH
 70
     1
  9
$DIMTOH
 70
     1
  9
$DIMSE1
 70
     0
  9
$DIMSE2
 70
     0
  9
$DIMTAD
 70
     0
  9
$DIMZIN
 70
     0
  9
$DIMBLK
  1

  9
$DIMASO
 70
     1
  9
$DIMSHO
 70
     1
  9
$DIMPOST
  1

  9
$DIMAPOST
  1

  9
$DIMALT
 70
     0
  9
$DIMALTD
 70
     2
  9
$DIMALTF
 40
25.4
  9
$DIMLFAC
 40
1.0
  9
$DIMTOFL
 70
     0
  9
$DIMTVP
 40
0.0
  9
$DIMTIX
 70
     0
  9
$DIMSOXD
 70
     0
  9
$DIMSAH
 70
     0
  9
$DIMBLK1
  1

  9
$DIMBLK2
  1

  9
$DIMSTYLE
  2
STANDARD
  9
$DIMCLRD
 70
     0
  9
$DIMCLRE
 70
     0
  9
$DIMCLRT
 70
     0
  9
$DIMTFAC
 40
1.0
  9
$DIMGAP
 40
0.09
  9
$LUNITS
 70
     2
  9
$LUPREC
 70
     4
  9
$SKETCHINC
 40
0.1
  9
$FILLETRAD
 40
0.5
  9
$AUNITS
 70
     0
  9
$AUPREC
 70
     0
  9
$MENU
  1
.
  9
$ELEVATION
 40
0.0
  9
$PELEVATION
 40
0.0
  9
$THICKNESS
 40
0.0
  9
$LIMCHECK
 70
     0
  9
$CHAMFERA
 40
0.5
  9
$CHAMFERB
 40
0.5
  9
$SKPOLY
 70
     0
  9
$TDCREATE
 40
2458958.488634259
  9
$TDUPDATE
 40
2459079.549249769
  9
$TDINDWG
 40
0.006157419
  9
$TDUSRTIMER
 40
0.006157419
  9
$USRTIMER
 70
     1
  9
$ANGBASE
 50
0.0
  9
$ANGDIR
 70
     0
  9
$PDMODE
 70
     0
  9
$PDSIZE
 40
0.0
  9
$PLINEWID
 40
0.0
  9
$COORDS
 70
     1
  9
$SPLFRAME
 70
     0
  9
$SPLINETYPE
 70
     6
  9
$SPLINESEGS
 70
     8
  9
$ATTDIA
 70
     0
  9
$ATTREQ
 70
     1
  9
$HANDLING
 70
     1
  9
$HANDSEED
  5
C19
  9
$SURFTAB1
 70
     6
  9
$SURFTAB2
 70
     6
  9
$SURFTYPE
 70
     6
  9
$SURFU
 70
     6
  9
$SURFV
 70
     6
  9
$UCSNAME
  2

  9
$UCSORG
 10
0.0
 20
0.0
 30
0.0
  9
$UCSXDIR
 10
1.0
 20
0.0
 30
0.0
  9
$UCSYDIR
 10
0.0
 20
1.0
 30
0.0
  9
$PUCSNAME
  2

  9
$PUCSORG
 10
0.0
 20
0.0
 30
0.0
  9
$PUCSXDIR
 10
1.0
 20
0.0
 30
0.0
  9
$PUCSYDIR
 10
0.0
 20
1.0
 30
0.0
  9
$USERI1
 70
     0
  9
$USERI2
 70
     0
  9
$USERI3
 70
     0
  9
$USERI4
 70
     0
  9
$USERI5
 70
     0
  9
$USERR1
 40
0.0
  9
$USERR2
 40
0.0
  9
$USERR3
 40
0.0
  9
$USERR4
 40
0.0
  9
$USERR5
 40
0.0
  9
$WORLDVIEW
 70
     1
  9
$SHADEDGE
 70
     3
  9
$SHADEDIF
 70
    70
  9
$TILEMODE
 70
     1
  9
$MAXACTVP
 70
    64
  9
$PLIMCHECK
 70
     0
  9
$PEXTMIN
 10
1.000000000000000E+20
 20
1.000000000000000E+20
 30
1.000000000000000E+20
  9
$PEXTMAX
 10
-1.000000000000000E+20
 20
-1.000000000000000E+20
 30
-1.000000000000000E+20
  9
$PLIMMIN
 10
0.0
 20
0.0
  9
$PLIMMAX
 10
12.0
 20
9.0
  9
$UNITMODE
 70
     0
  9
$VISRETAIN
 70
     1
  9
$PLINEGEN
 70
     0
  9
$PSLTSCALE
 70
     1
  0
ENDSEC
  0
SECTION
  2
TABLES
  0
TABLE
  2
VPORT
 70
     1
  0
VPORT
  2
*ACTIVE
 70
     0
 10
0.0
 20
0.0
 11
1.0
 21
1.0
 12
-16.74266372212801
 22
45.25788245269507
 13
0.0
 23
0.0
 14
0.5
 24
0.5
 15
0.5
 25
0.5
 16
0.0
 26
0.0
 36
1.0
 17
105.0007777515277
 27
148.5000416295416
 37
0.0
 40
192.0847290547628
 41
2.134308510638297
 42
50.0
 43
0.0
 44
0.0
 50
0.0
 51
0.0
 71
     0
 72
   100
 73
     1
 74
     3
 75
     0
 76
     0
 77
     0
 78
     0
  0
ENDTAB
  0
TABLE
  2
LTYPE
 70
     1
  0
LTYPE
  2
CONTINUOUS
 70
     0
  3
Solid line
 72
    65
 73
     0
 40
0.0
  0
ENDTAB
  0
TABLE
  2
LAYER
 70
     2
  0
LAYER
  2
0
 70
     0
 62
     7
  6
CONTINUOUS
  0
LAYER
  2
DEFPOINTS
 70
     0
 62
     7
  6
CONTINUOUS
  0
ENDTAB
  0
TABLE
  2
STYLE
 70
     1
  0
STYLE
  2
STANDARD
 70
     0
 40
0.0
 41
1.0
 50
0.0
 71
     0
 42
0.2
  3
txt
  4

  0
ENDTAB
  0
TABLE
  2
VIEW
 70
     0
  0
ENDTAB
  0
TABLE
  2
UCS
 70
     0
  0
ENDTAB
  0
TABLE
  2
APPID
 70
     3
  0
APPID
  2
ACAD
 70
     0
  0
APPID
  2
ACAD_NAV_VCDISPLAY
 70
     0
  0
APPID
  2
ACAD_MLEADERVER
 70
     0
  0
ENDTAB
  0
TABLE
  2
DIMSTYLE
 70
     1
  0
DIMSTYLE
  2
STANDARD
 70
     0
  3

  4

  5

  6

  7

 40
1.0
 41
0.18
 42
0.0625
 43
0.38
 44
0.18
 45
0.0
 46
0.0
 47
0.0
 48
0.0
140
0.18
141
0.09
142
0.0
143
25.4
144
1.0
145
0.0
146
1.0
147
0.09
 71
     0
 72
     0
 73
     1
 74
     1
 75
     0
 76
     0
 77
     0
 78
     0
170
     0
171
     2
172
     0
173
     0
174
     0
175
     0
176
     0
177
     0
178
     0
  0
ENDTAB
  0
ENDSEC
  0
SECTION
  2
BLOCKS
  0
BLOCK
  8
0
  2
$MODEL_SPACE
 70
     0
 10
0.0
 20
0.0
 30
0.0
  3
$MODEL_SPACE
  1

  0
ENDBLK
  5
21
  8
0
  0
BLOCK
 67
     1
  8
0
  2
$PAPER_SPACE
 70
     0
 10
0.0
 20
0.0
 30
0.0
  3
$PAPER_SPACE
  1

  0
ENDBLK
  5
1D
 67
     1
  8
0
  0
BLOCK
  8
0
  2
BLOCK_2
 70
     0
 10
0.0
 20
0.0
 30
0.0
  3
BLOCK_2
  1

  0
POLYLINE
  5
44
  8
0
 62
     7
 66
     1
 10
0.0
 20
0.0
 30
0.0
  0
VERTEX
  5
503
  8
0
 62
     7
 10
-27.90029135965932
 20
122.4713634073142
 30
0.0
  0
VERTEX
  5
504
  8
0
 62
     7
 10
-27.90029135965932
 20
136.4705734073144
 30
0.0
  0
VERTEX
  5
505
  8
0
 62
     7
 10
-13.8995573596595
 20
136.4705734073144
 30
0.0
  0
VERTEX
  5
506
  8
0
 62
     7
 10
-13.8995573596595
 20
122.4713634073149
 30
0.0
  0
VERTEX
  5
507
  8
0
 62
     7
 10
-27.90029135965932
 20
122.4713634073142
 30
0.0
  0
SEQEND
  5
BC7
  8
0
 62
     7
  0
ENDBLK
  5
43
  8
0
  0
BLOCK
  8
0
  2
BLOCK_3
 70
     0
 10
0.0
 20
0.0
 30
0.0
  3
BLOCK_3
  1

  0
POLYLINE
  5
4F
  8
0
 62
     7
 66
     1
 10
0.0
 20
0.0
 30
0.0
  0
VERTEX
  5
508
  8
0
 62
     7
 10
155.4541806403409
 20
117.4208274073148
 30
0.0
  0
VERTEX
  5
509
  8
0
 62
     7
 10
169.4551686403405
 20
117.4208274073148
 30
0.0
  0
VERTEX
  5
50A
  8
0
 62
     7
 10
169.4551686403405
 20
103.4213634073147
 30
0.0
  0
VERTEX
  5
50B
  8
0
 62
     7
 10
155.4541806403409
 20
103.4213634073147
 30
0.0
  0
VERTEX
  5
50C
  8
0
 62
     7
 10
155.4541806403409
 20
117.4208274073148
 30
0.0
  0
SEQEND
  5
BC8
  8
0
 62
     7
  0
ENDBLK
  5
4E
  8
0
  0
BLOCK
  8
0
  2
BLOCK_4
 70
     0
 10
0.0
 20
0.0
 30
0.0
  3
BLOCK_4
  1

  0
POLYLINE
  5
5A
  8
0
 62
     7
 66
     1
 10
0.0
 20
0.0
 30
0.0
  0
VERTEX
  5
50D
  8
0
 62
     7
 10
193.5551966403404
 20
117.4208274073148
 30
0.0
  0
VERTEX
  5
50E
  8
0
 62
     7
 10
207.5551686403404
 20
117.4208274073148
 30
0.0
  0
VERTEX
  5
50F
  8
0
 62
     7
 10
207.5551686403404
 20
103.4213634073147
 30
0.0
  0
VERTEX
  5
510
  8
0
 62
     7
 10
193.5551966403404
 20
103.4213634073147
 30
0.0
  0
VERTEX
  5
511
  8
0
 62
     7
 10
193.5551966403404
 20
117.4208274073148
 30
0.0
  0
SEQEND
  5
BC9
  8
0
 62
     7
  0
ENDBLK
  5
59
  8
0
  0
BLOCK
  8
0
  2
BLOCK_5
 70
     0
 10
0.0
 20
0.0
 30
0.0
  3
BLOCK_5
  1

  0
POLYLINE
  5
65
  8
0
 62
     7
 66
     1
 10
0.0
 20
0.0
 30
0.0
  0
VERTEX
  5
512
  8
0
 62
     7
 10
134.0244546403408
 20
103.4213634073147
 30
0.0
  0
VERTEX
  5
513
  8
0
 62
     7
 10
134.0244546403408
 20
117.4208274073148
 30
0.0
  0
VERTEX
  5
514
  8
0
 62
     7
 10
148.0251886403406
 20
117.4208274073148
 30
0.0
  0
VERTEX
  5
515
  8
0
 62
     7
 10
148.0251886403406
 20
103.4213634073147
 30
0.0
  0
VERTEX
  5
516
  8
0
 62
     7
 10
134.0244546403408
 20
103.4213634073147
 30
0.0
  0
SEQEND
  5
BCA
  8
0
 62
     7
  0
ENDBLK
  5
64
  8
0
  0
BLOCK
  8
0
  2
BLOCK_6
 70
     0
 10
0.0
 20
0.0
 30
0.0
  3
BLOCK_6
  1

  0
POLYLINE
  5
70
  8
0
 62
     7
 66
     1
 10
0.0
 20
0.0
 30
0.0
  0
VERTEX
  5
517
  8
0
 62
     7
 10
212.6041806403408
 20
103.4213634073147
 30
0.0
  0
VERTEX
  5
518
  8
0
 62
     7
 10
212.6041806403408
 20
117.4208274073148
 30
0.0
  0
VERTEX
  5
519
  8
0
 62
     7
 10
226.6051686403406
 20
117.4208274073148
 30
0.0
  0
VERTEX
  5
51A
  8
0
 62
     7
 10
226.6051686403406
 20
103.4213634073147
 30
0.0
  0
VERTEX
  5
51B
  8
0
 62
     7
 10
212.6041806403408
 20
103.4213634073147
 30
0.0
  0
SEQEND
  5
BCB
  8
0
 62
     7
  0
ENDBLK
  5
6F
  8
0
  0
BLOCK
  8
0
  2
BLOCK_7
 70
     0
 10
0.0
 20
0.0
 30
0.0
  3
BLOCK_7
  1

  0
POLYLINE
  5
7B
  8
0
 62
     7
 66
     1
 10
0.0
 20
0.0
 30
0.0
  0
VERTEX
  5
51C
  8
0
 62
     7
 10
188.5051686403408
 20
117.4208274073148
 30
0.0
  0
VERTEX
  5
51D
  8
0
 62
     7
 10
188.5051686403408
 20
103.4213634073147
 30
0.0
  0
VERTEX
  5
51E
  8
0
 62
     7
 10
174.5051966403408
 20
103.4213634073147
 30
0.0
  0
VERTEX
  5
51F
  8
0
 62
     7
 10
174.5051966403408
 20
117.4208274073148
 30
0.0
  0
VERTEX
  5
520
  8
0
 62
     7
 10
188.5051686403408
 20
117.4208274073148
 30
0.0
  0
SEQEND
  5
BCC
  8
0
 62
     7
  0
ENDBLK
  5
7A
  8
0
  0
BLOCK
  8
0
  2
BLOCK_8
 70
     0
 10
0.0
 20
0.0
 30
0.0
  3
BLOCK_8
  1

  0
POLYLINE
  5
86
  8
0
 62
     7
 66
     1
 10
0.0
 20
0.0
 30
0.0
  0
VERTEX
  5
521
  8
0
 62
     7
 10
111.4474106403407
 20
108.1203634073148
 30
0.0
  0
VERTEX
  5
522
  8
0
 62
     7
 10
111.4474106403407
 20
104.8902454073143
 30
0.0
  0
VERTEX
  5
523
  8
0
 62
     7
 10
118.1992386403404
 20
104.8902454073143
 30
0.0
  0
VERTEX
  5
524
  8
0
 62
     7
 10
118.1992386403404
 20
108.1203634073148
 30
0.0
  0
VERTEX
  5
525
  8
0
 62
     7
 10
119.0244846403408
 20
108.1203634073148
 30
0.0
  0
VERTEX
  5
526
  8
0
 62
     7
 10
119.0244846403408
 20
110.9204594073149
 30
0.0
  0
VERTEX
  5
527
  8
0
 62
     7
 10
118.1992386403404
 20
110.9204594073143
 30
0.0
  0
VERTEX
  5
528
  8
0
 62
     7
 10
118.1992386403404
 20
117.1891794073146
 30
0.0
  0
VERTEX
  5
529
  8
0
 62
     7
 10
116.4733086403405
 20
117.1891794073146
 30
0.0
  0
VERTEX
  5
52A
  8
0
 62
     7
 10
116.4733086403405
 20
118.3908534073145
 30
0.0
  0
VERTEX
  5
52B
  8
0
 62
     7
 10
113.1743566403404
 20
118.3908534073145
 30
0.0
  0
VERTEX
  5
52C
  8
0
 62
     7
 10
113.1743566403404
 20
117.1891794073146
 30
0.0
  0
VERTEX
  5
52D
  8
0
 62
     7
 10
111.4474106403407
 20
117.1891794073146
 30
0.0
  0
VERTEX
  5
52E
  8
0
 62
     7
 10
111.4474106403407
 20
112.7203034073145
 30
0.0
  0
VERTEX
  5
52F
  8
0
 62
     7
 10
109.9254426403408
 20
112.7203034073145
 30
0.0
  0
VERTEX
  5
530
  8
0
 62
     7
 10
109.9254426403408
 20
117.4208274073148
 30
0.0
  0
VERTEX
  5
531
  8
0
 62
     7
 10
95.92445464034071
 20
117.4208274073148
 30
0.0
  0
VERTEX
  5
532
  8
0
 62
     7
 10
95.92445464034071
 20
112.7203034073145
 30
0.0
  0
VERTEX
  5
533
  8
0
 62
     7
 10
94.40045464034063
 20
112.7203034073145
 30
0.0
  0
VERTEX
  5
534
  8
0
 62
     7
 10
94.40045464034063
 20
117.1891794073146
 30
0.0
  0
VERTEX
  5
535
  8
0
 62
     7
 10
92.67528664034079
 20
117.1891794073146
 30
0.0
  0
VERTEX
  5
536
  8
0
 62
     7
 10
92.67528664034079
 20
118.3908534073145
 30
0.0
  0
VERTEX
  5
537
  8
0
 62
     7
 10
89.37430264034063
 20
118.3908534073145
 30
0.0
  0
VERTEX
  5
538
  8
0
 62
     7
 10
89.37430264034063
 20
117.1891794073146
 30
0.0
  0
VERTEX
  5
539
  8
0
 62
     7
 10
87.64938864034073
 20
117.1891794073146
 30
0.0
  0
VERTEX
  5
53A
  8
0
 62
     7
 10
87.64938864034073
 20
110.9204594073149
 30
0.0
  0
VERTEX
  5
53B
  8
0
 62
     7
 10
86.82439664034062
 20
110.9204594073143
 30
0.0
  0
VERTEX
  5
53C
  8
0
 62
     7
 10
86.82439664034062
 20
108.1203634073148
 30
0.0
  0
VERTEX
  5
53D
  8
0
 62
     7
 10
87.64938864034073
 20
108.1203634073148
 30
0.0
  0
VERTEX
  5
53E
  8
0
 62
     7
 10
87.64938864034073
 20
104.8902454073143
 30
0.0
  0
VERTEX
  5
53F
  8
0
 62
     7
 10
94.40045464034063
 20
104.8902454073143
 30
0.0
  0
VERTEX
  5
540
  8
0
 62
     7
 10
94.40045464034063
 20
108.1203634073148
 30
0.0
  0
VERTEX
  5
541
  8
0
 62
     7
 10
95.92445464034071
 20
108.1203634073148
 30
0.0
  0
VERTEX
  5
542
  8
0
 62
     7
 10
95.92445464034071
 20
103.4213634073147
 30
0.0
  0
VERTEX
  5
543
  8
0
 62
     7
 10
109.9254426403408
 20
103.4213634073147
 30
0.0
  0
VERTEX
  5
544
  8
0
 62
     7
 10
109.9254426403408
 20
108.1203634073148
 30
0.0
  0
VERTEX
  5
545
  8
0
 62
     7
 10
111.4474106403407
 20
108.1203634073148
 30
0.0
  0
SEQEND
  5
BCD
  8
0
 62
     7
  0
ENDBLK
  5
85
  8
0
  0
BLOCK
  8
0
  2
BLOCK_9
 70
     0
 10
0.0
 20
0.0
 30
0.0
  3
BLOCK_9
  1

  0
POLYLINE
  5
B1
  8
0
 62
     7
 66
     1
 10
0.0
 20
0.0
 30
0.0
  0
VERTEX
  5
546
  8
0
 62
     7
 10
-1.706541359659536
 20
136.4705734073144
 30
0.0
  0
VERTEX
  5
547
  8
0
 62
     7
 10
12.2941926403406
 20
136.4705734073144
 30
0.0
  0
VERTEX
  5
548
  8
0
 62
     7
 10
12.2941926403406
 20
122.4713634073149
 30
0.0
  0
VERTEX
  5
549
  8
0
 62
     7
 10
-1.706541359659215
 20
122.4713634073142
 30
0.0
  0
VERTEX
  5
54A
  8
0
 62
     7
 10
-1.706541359659536
 20
136.4705734073144
 30
0.0
  0
SEQEND
  5
BCE
  8
0
 62
     7
  0
ENDBLK
  5
B0
  8
0
  0
BLOCK
  8
0
  2
BLOCK_10
 70
     0
 10
0.0
 20
0.0
 30
0.0
  3
BLOCK_10
  1

  0
POLYLINE
  5
BC
  8
0
 62
     7
 66
     1
 10
0.0
 20
0.0
 30
0.0
  0
VERTEX
  5
54B
  8
0
 62
     7
 10
17.34218864034065
 20
136.4705734073144
 30
0.0
  0
VERTEX
  5
54C
  8
0
 62
     7
 10
31.34266864034053
 20
136.4705734073144
 30
0.0
  0
VERTEX
  5
54D
  8
0
 62
     7
 10
31.34266864034053
 20
122.4713634073149
 30
0.0
  0
VERTEX
  5
54E
  8
0
 62
     7
 10
17.34218864034065
 20
122.4713634073142
 30
0.0
  0
VERTEX
  5
54F
  8
0
 62
     7
 10
17.34218864034065
 20
136.4705734073144
 30
0.0
  0
SEQEND
  5
BCF
  8
0
 62
     7
  0
ENDBLK
  5
BB
  8
0
  0
BLOCK
  8
0
  2
BLOCK_11
 70
     0
 10
0.0
 20
0.0
 30
0.0
  3
BLOCK_11
  1

  0
POLYLINE
  5
C7
  8
0
 62
     7
 66
     1
 10
0.0
 20
0.0
 30
0.0
  0
VERTEX
  5
550
  8
0
 62
     7
 10
245.6551686403407
 20
103.4213634073147
 30
0.0
  0
VERTEX
  5
551
  8
0
 62
     7
 10
231.6541806403404
 20
103.4213634073147
 30
0.0
  0
VERTEX
  5
552
  8
0
 62
     7
 10
231.6541806403404
 20
117.4208274073148
 30
0.0
  0
VERTEX
  5
553
  8
0
 62
     7
 10
245.6551686403407
 20
117.4208274073148
 30
0.0
  0
VERTEX
  5
554
  8
0
 62
     7
 10
245.6551686403407
 20
103.4213634073147
 30
0.0
  0
SEQEND
  5
BD0
  8
0
 62
     7
  0
ENDBLK
  5
C6
  8
0
  0
BLOCK
  8
0
  2
BLOCK_12
 70
     0
 10
0.0
 20
0.0
 30
0.0
  3
BLOCK_12
  1

  0
POLYLINE
  5
D2
  8
0
 62
     7
 66
     1
 10
0.0
 20
0.0
 30
0.0
  0
VERTEX
  5
555
  8
0
 62
     7
 10
48.29970864034049
 20
112.7203034073145
 30
0.0
  0
VERTEX
  5
556
  8
0
 62
     7
 10
46.77520064034053
 20
112.7203034073145
 30
0.0
  0
VERTEX
  5
557
  8
0
 62
     7
 10
46.77520064034053
 20
117.1891794073146
 30
0.0
  0
VERTEX
  5
558
  8
0
 62
     7
 10
45.05028664034065
 20
117.1891794073146
 30
0.0
  0
VERTEX
  5
559
  8
0
 62
     7
 10
45.05028664034065
 20
118.3908534073145
 30
0.0
  0
VERTEX
  5
55A
  8
0
 62
     7
 10
41.74955664034071
 20
118.3908534073145
 30
0.0
  0
VERTEX
  5
55B
  8
0
 62
     7
 10
41.74955664034071
 20
117.1891794073146
 30
0.0
  0
VERTEX
  5
55C
  8
0
 62
     7
 10
40.02464264034051
 20
117.1891794073146
 30
0.0
  0
VERTEX
  5
55D
  8
0
 62
     7
 10
40.02464264034051
 20
110.9204594073149
 30
0.0
  0
VERTEX
  5
55E
  8
0
 62
     7
 10
39.20041264034053
 20
110.9204594073143
 30
0.0
  0
VERTEX
  5
55F
  8
0
 62
     7
 10
39.20041264034053
 20
108.1203634073148
 30
0.0
  0
VERTEX
  5
560
  8
0
 62
     7
 10
40.02464264034051
 20
108.1203634073148
 30
0.0
  0
VERTEX
  5
561
  8
0
 62
     7
 10
40.02464264034051
 20
104.8902454073143
 30
0.0
  0
VERTEX
  5
562
  8
0
 62
     7
 10
46.77520064034053
 20
104.8902454073143
 30
0.0
  0
VERTEX
  5
563
  8
0
 62
     7
 10
46.77520064034053
 20
108.1203634073148
 30
0.0
  0
VERTEX
  5
564
  8
0
 62
     7
 10
48.29970864034049
 20
108.1203634073148
 30
0.0
  0
VERTEX
  5
565
  8
0
 62
     7
 10
48.29970864034049
 20
103.4213634073147
 30
0.0
  0
VERTEX
  5
566
  8
0
 62
     7
 10
62.30018864034069
 20
103.4213634073147
 30
0.0
  0
VERTEX
  5
567
  8
0
 62
     7
 10
62.30018864034069
 20
108.1203634073148
 30
0.0
  0
VERTEX
  5
568
  8
0
 62
     7
 10
63.82444264034069
 20
108.1203634073148
 30
0.0
  0
VERTEX
  5
569
  8
0
 62
     7
 10
63.82444264034069
 20
104.8902454073143
 30
0.0
  0
VERTEX
  5
56A
  8
0
 62
     7
 10
70.57449264034055
 20
104.8902454073143
 30
0.0
  0
VERTEX
  5
56B
  8
0
 62
     7
 10
70.57449264034055
 20
108.1203634073148
 30
0.0
  0
VERTEX
  5
56C
  8
0
 62
     7
 10
71.39948464034065
 20
108.1203634073148
 30
0.0
  0
VERTEX
  5
56D
  8
0
 62
     7
 10
71.39948464034065
 20
110.9204594073149
 30
0.0
  0
VERTEX
  5
56E
  8
0
 62
     7
 10
70.57449264034055
 20
110.9204594073143
 30
0.0
  0
VERTEX
  5
56F
  8
0
 62
     7
 10
70.57449264034055
 20
117.1891794073146
 30
0.0
  0
VERTEX
  5
570
  8
0
 62
     7
 10
68.84856264034056
 20
117.1891794073146
 30
0.0
  0
VERTEX
  5
571
  8
0
 62
     7
 10
68.84856264034056
 20
118.3908534073145
 30
0.0
  0
VERTEX
  5
572
  8
0
 62
     7
 10
65.54935664034059
 20
118.3908534073145
 30
0.0
  0
VERTEX
  5
573
  8
0
 62
     7
 10
65.54935664034059
 20
117.1891794073146
 30
0.0
  0
VERTEX
  5
574
  8
0
 62
     7
 10
63.82444264034069
 20
117.1891794073146
 30
0.0
  0
VERTEX
  5
575
  8
0
 62
     7
 10
63.82444264034069
 20
112.7203034073145
 30
0.0
  0
VERTEX
  5
576
  8
0
 62
     7
 10
62.30018864034069
 20
112.7203034073145
 30
0.0
  0
VERTEX
  5
577
  8
0
 62
     7
 10
62.30018864034069
 20
117.4208274073148
 30
0.0
  0
VERTEX
  5
578
  8
0
 62
     7
 10
48.29970864034049
 20
117.4208274073148
 30
0.0
  0
VERTEX
  5
579
  8
0
 62
     7
 10
48.29970864034049
 20
112.7203034073145
 30
0.0
  0
SEQEND
  5
BD1
  8
0
 62
     7
  0
ENDBLK
  5
D1
  8
0
  0
BLOCK
  8
0
  2
BLOCK_13
 70
     0
 10
0.0
 20
0.0
 30
0.0
  3
BLOCK_13
  1

  0
POLYLINE
  5
FD
  8
0
 62
     7
 66
     1
 10
0.0
 20
0.0
 30
0.0
  0
VERTEX
  5
57A
  8
0
 62
     7
 10
88.49444664034066
 20
136.4705734073144
 30
0.0
  0
VERTEX
  5
57B
  8
0
 62
     7
 10
88.49444664034066
 20
122.4713634073149
 30
0.0
  0
VERTEX
  5
57C
  8
0
 62
     7
 10
74.49142664034076
 20
122.4713634073142
 30
0.0
  0
VERTEX
  5
57D
  8
0
 62
     7
 10
74.49142664034076
 20
136.4705734073144
 30
0.0
  0
VERTEX
  5
57E
  8
0
 62
     7
 10
88.49444664034066
 20
136.4705734073144
 30
0.0
  0
SEQEND
  5
BD2
  8
0
 62
     7
  0
ENDBLK
  5
FC
  8
0
  0
BLOCK
  8
0
  2
BLOCK_14
 70
     0
 10
0.0
 20
0.0
 30
0.0
  3
BLOCK_14
  1

  0
POLYLINE
  5
108
  8
0
 62
     7
 66
     1
 10
0.0
 20
0.0
 30
0.0
  0
VERTEX
  5
57F
  8
0
 62
     7
 10
145.6441926403403
 20
122.4713634073142
 30
0.0
  0
VERTEX
  5
580
  8
0
 62
     7
 10
131.6434586403405
 20
122.4713634073142
 30
0.0
  0
VERTEX
  5
581
  8
0
 62
     7
 10
131.6434586403405
 20
136.4705734073144
 30
0.0
  0
VERTEX
  5
582
  8
0
 62
     7
 10
145.6441926403403
 20
136.4705734073144
 30
0.0
  0
VERTEX
  5
583
  8
0
 62
     7
 10
145.6441926403403
 20
122.4713634073142
 30
0.0
  0
SEQEND
  5
BD3
  8
0
 62
     7
  0
ENDBLK
  5
107
  8
0
  0
BLOCK
  8
0
  2
BLOCK_15
 70
     0
 10
0.0
 20
0.0
 30
0.0
  3
BLOCK_15
  1

  0
POLYLINE
  5
113
  8
0
 62
     7
 66
     1
 10
0.0
 20
0.0
 30
0.0
  0
VERTEX
  5
584
  8
0
 62
     7
 10
40.86919264034057
 20
141.5198394073148
 30
0.0
  0
VERTEX
  5
585
  8
0
 62
     7
 10
26.86845864034075
 20
141.5198394073148
 30
0.0
  0
VERTEX
  5
586
  8
0
 62
     7
 10
26.86845864034075
 20
155.5193034073146
 30
0.0
  0
VERTEX
  5
587
  8
0
 62
     7
 10
40.86919264034057
 20
155.5193034073146
 30
0.0
  0
VERTEX
  5
588
  8
0
 62
     7
 10
40.86919264034057
 20
141.5198394073148
 30
0.0
  0
SEQEND
  5
BD4
  8
0
 62
     7
  0
ENDBLK
  5
112
  8
0
  0
BLOCK
  8
0
  2
BLOCK_16
 70
     0
 10
0.0
 20
0.0
 30
0.0
  3
BLOCK_16
  1

  0
POLYLINE
  5
11E
  8
0
 62
     7
 66
     1
 10
0.0
 20
0.0
 30
0.0
  0
VERTEX
  5
589
  8
0
 62
     7
 10
-32.66279135965937
 20
141.5198394073148
 30
0.0
  0
VERTEX
  5
58A
  8
0
 62
     7
 10
-32.66279135965937
 20
155.5193034073146
 30
0.0
  0
VERTEX
  5
58B
  8
0
 62
     7
 10
-18.66332735965923
 20
155.5193034073146
 30
0.0
  0
VERTEX
  5
58C
  8
0
 62
     7
 10
-18.66332735965923
 20
141.5198394073148
 30
0.0
  0
VERTEX
  5
58D
  8
0
 62
     7
 10
-32.66279135965937
 20
141.5198394073148
 30
0.0
  0
SEQEND
  5
BD5
  8
0
 62
     7
  0
ENDBLK
  5
11D
  8
0
  0
BLOCK
  8
0
  2
BLOCK_17
 70
     0
 10
0.0
 20
0.0
 30
0.0
  3
BLOCK_17
  1

  0
POLYLINE
  5
129
  8
0
 62
     7
 66
     1
 10
0.0
 20
0.0
 30
0.0
  0
VERTEX
  5
58E
  8
0
 62
     7
 10
21.8191926403407
 20
141.5198394073148
 30
0.0
  0
VERTEX
  5
58F
  8
0
 62
     7
 10
7.818458640340557
 20
141.5198394073148
 30
0.0
  0
VERTEX
  5
590
  8
0
 62
     7
 10
7.818458640340557
 20
155.5193034073146
 30
0.0
  0
VERTEX
  5
591
  8
0
 62
     7
 10
21.8191926403407
 20
155.5193034073146
 30
0.0
  0
VERTEX
  5
592
  8
0
 62
     7
 10
21.8191926403407
 20
141.5198394073148
 30
0.0
  0
SEQEND
  5
BD6
  8
0
 62
     7
  0
ENDBLK
  5
128
  8
0
  0
BLOCK
  8
0
  2
BLOCK_18
 70
     0
 10
0.0
 20
0.0
 30
0.0
  3
BLOCK_18
  1

  0
POLYLINE
  5
134
  8
0
 62
     7
 66
     1
 10
0.0
 20
0.0
 30
0.0
  0
VERTEX
  5
593
  8
0
 62
     7
 10
245.6551686403407
 20
136.4705734073144
 30
0.0
  0
VERTEX
  5
594
  8
0
 62
     7
 10
245.6551686403407
 20
122.4713634073149
 30
0.0
  0
VERTEX
  5
595
  8
0
 62
     7
 10
231.6541806403404
 20
122.4713634073142
 30
0.0
  0
VERTEX
  5
596
  8
0
 62
     7
 10
231.6541806403404
 20
136.4705734073144
 30
0.0
  0
VERTEX
  5
597
  8
0
 62
     7
 10
245.6551686403407
 20
136.4705734073144
 30
0.0
  0
SEQEND
  5
BD7
  8
0
 62
     7
  0
ENDBLK
  5
133
  8
0
  0
BLOCK
  8
0
  2
BLOCK_19
 70
     0
 10
0.0
 20
0.0
 30
0.0
  3
BLOCK_19
  1

  0
POLYLINE
  5
13F
  8
0
 62
     7
 66
     1
 10
0.0
 20
0.0
 30
0.0
  0
VERTEX
  5
598
  8
0
 62
     7
 10
188.5051686403408
 20
136.4705734073144
 30
0.0
  0
VERTEX
  5
599
  8
0
 62
     7
 10
188.5051686403408
 20
122.4713634073149
 30
0.0
  0
VERTEX
  5
59A
  8
0
 62
     7
 10
174.5051966403408
 20
122.4713634073142
 30
0.0
  0
VERTEX
  5
59B
  8
0
 62
     7
 10
174.5051966403408
 20
136.4705734073144
 30
0.0
  0
VERTEX
  5
59C
  8
0
 62
     7
 10
188.5051686403408
 20
136.4705734073144
 30
0.0
  0
SEQEND
  5
BD8
  8
0
 62
     7
  0
ENDBLK
  5
13E
  8
0
  0
BLOCK
  8
0
  2
BLOCK_20
 70
     0
 10
0.0
 20
0.0
 30
0.0
  3
BLOCK_20
  1

  0
POLYLINE
  5
14A
  8
0
 62
     7
 66
     1
 10
0.0
 20
0.0
 30
0.0
  0
VERTEX
  5
59D
  8
0
 62
     7
 10
167.0731566403406
 20
122.4713634073142
 30
0.0
  0
VERTEX
  5
59E
  8
0
 62
     7
 10
153.0731846403406
 20
122.4713634073142
 30
0.0
  0
VERTEX
  5
59F
  8
0
 62
     7
 10
153.0731846403406
 20
136.4705734073144
 30
0.0
  0
VERTEX
  5
5A0
  8
0
 62
     7
 10
167.0731566403406
 20
136.4705734073144
 30
0.0
  0
VERTEX
  5
5A1
  8
0
 62
     7
 10
167.0731566403406
 20
122.4713634073142
 30
0.0
  0
SEQEND
  5
BD9
  8
0
 62
     7
  0
ENDBLK
  5
149
  8
0
  0
BLOCK
  8
0
  2
BLOCK_21
 70
     0
 10
0.0
 20
0.0
 30
0.0
  3
BLOCK_21
  1

  0
POLYLINE
  5
155
  8
0
 62
     7
 66
     1
 10
0.0
 20
0.0
 30
0.0
  0
VERTEX
  5
5A2
  8
0
 62
     7
 10
126.5924146403406
 20
136.4705734073144
 30
0.0
  0
VERTEX
  5
5A3
  8
0
 62
     7
 10
126.5924146403406
 20
122.4713634073149
 30
0.0
  0
VERTEX
  5
5A4
  8
0
 62
     7
 10
112.593458640341
 20
122.4713634073142
 30
0.0
  0
VERTEX
  5
5A5
  8
0
 62
     7
 10
112.593458640341
 20
136.4705734073144
 30
0.0
  0
VERTEX
  5
5A6
  8
0
 62
     7
 10
126.5924146403406
 20
136.4705734073144
 30
0.0
  0
SEQEND
  5
BDA
  8
0
 62
     7
  0
ENDBLK
  5
154
  8
0
  0
BLOCK
  8
0
  2
BLOCK_22
 70
     0
 10
0.0
 20
0.0
 30
0.0
  3
BLOCK_22
  1

  0
POLYLINE
  5
160
  8
0
 62
     7
 66
     1
 10
0.0
 20
0.0
 30
0.0
  0
VERTEX
  5
5A7
  8
0
 62
     7
 10
-11.23179535965925
 20
141.5198394073148
 30
0.0
  0
VERTEX
  5
5A8
  8
0
 62
     7
 10
-11.23179535965925
 20
155.5193034073146
 30
0.0
  0
VERTEX
  5
5A9
  8
0
 62
     7
 10
2.767668640340566
 20
155.5193034073146
 30
0.0
  0
VERTEX
  5
5AA
  8
0
 62
     7
 10
2.767668640340566
 20
141.5198394073148
 30
0.0
  0
VERTEX
  5
5AB
  8
0
 62
     7
 10
-11.23179535965925
 20
141.5198394073148
 30
0.0
  0
SEQEND
  5
BDB
  8
0
 62
     7
  0
ENDBLK
  5
15F
  8
0
  0
BLOCK
  8
0
  2
BLOCK_23
 70
     0
 10
0.0
 20
0.0
 30
0.0
  3
BLOCK_23
  1

  0
POLYLINE
  5
16B
  8
0
 62
     7
 66
     1
 10
0.0
 20
0.0
 30
0.0
  0
VERTEX
  5
5AC
  8
0
 62
     7
 10
107.5424146403404
 20
136.4705734073144
 30
0.0
  0
VERTEX
  5
5AD
  8
0
 62
     7
 10
107.5424146403404
 20
122.4713634073149
 30
0.0
  0
VERTEX
  5
5AE
  8
0
 62
     7
 10
93.54345864034077
 20
122.4713634073142
 30
0.0
  0
VERTEX
  5
5AF
  8
0
 62
     7
 10
93.54345864034077
 20
136.4705734073144
 30
0.0
  0
VERTEX
  5
5B0
  8
0
 62
     7
 10
107.5424146403404
 20
136.4705734073144
 30
0.0
  0
SEQEND
  5
BDC
  8
0
 62
     7
  0
ENDBLK
  5
16A
  8
0
  0
BLOCK
  8
0
  2
BLOCK_24
 70
     0
 10
0.0
 20
0.0
 30
0.0
  3
BLOCK_24
  1

  0
POLYLINE
  5
176
  8
0
 62
     7
 66
     1
 10
0.0
 20
0.0
 30
0.0
  0
VERTEX
  5
5B1
  8
0
 62
     7
 10
36.39345864034054
 20
122.4713634073142
 30
0.0
  0
VERTEX
  5
5B2
  8
0
 62
     7
 10
36.39345864034054
 20
136.4705734073144
 30
0.0
  0
VERTEX
  5
5B3
  8
0
 62
     7
 10
50.39266864034072
 20
136.4705734073144
 30
0.0
  0
VERTEX
  5
5B4
  8
0
 62
     7
 10
50.39266864034072
 20
122.4713634073149
 30
0.0
  0
VERTEX
  5
5B5
  8
0
 62
     7
 10
36.39345864034054
 20
122.4713634073142
 30
0.0
  0
SEQEND
  5
BDD
  8
0
 62
     7
  0
ENDBLK
  5
175
  8
0
  0
BLOCK
  8
0
  2
BLOCK_25
 70
     0
 10
0.0
 20
0.0
 30
0.0
  3
BLOCK_25
  1

  0
POLYLINE
  5
181
  8
0
 62
     7
 66
     1
 10
0.0
 20
0.0
 30
0.0
  0
VERTEX
  5
5B6
  8
0
 62
     7
 10
207.5551686403404
 20
122.4713634073142
 30
0.0
  0
VERTEX
  5
5B7
  8
0
 62
     7
 10
193.5551966403404
 20
122.4713634073142
 30
0.0
  0
VERTEX
  5
5B8
  8
0
 62
     7
 10
193.5551966403404
 20
136.4705734073144
 30
0.0
  0
VERTEX
  5
5B9
  8
0
 62
     7
 10
207.5551686403404
 20
136.4705734073144
 30
0.0
  0
VERTEX
  5
5BA
  8
0
 62
     7
 10
207.5551686403404
 20
122.4713634073142
 30
0.0
  0
SEQEND
  5
BDE
  8
0
 62
     7
  0
ENDBLK
  5
180
  8
0
  0
BLOCK
  8
0
  2
BLOCK_26
 70
     0
 10
0.0
 20
0.0
 30
0.0
  3
BLOCK_26
  1

  0
POLYLINE
  5
18C
  8
0
 62
     7
 66
     1
 10
0.0
 20
0.0
 30
0.0
  0
VERTEX
  5
5BB
  8
0
 62
     7
 10
69.44241464034066
 20
122.4713634073142
 30
0.0
  0
VERTEX
  5
5BC
  8
0
 62
     7
 10
55.44345864034072
 20
122.4713634073142
 30
0.0
  0
VERTEX
  5
5BD
  8
0
 62
     7
 10
55.44345864034072
 20
136.4705734073144
 30
0.0
  0
VERTEX
  5
5BE
  8
0
 62
     7
 10
69.44241464034066
 20
136.4705734073144
 30
0.0
  0
VERTEX
  5
5BF
  8
0
 62
     7
 10
69.44241464034066
 20
122.4713634073142
 30
0.0
  0
SEQEND
  5
BDF
  8
0
 62
     7
  0
ENDBLK
  5
18B
  8
0
  0
BLOCK
  8
0
  2
BLOCK_27
 70
     0
 10
0.0
 20
0.0
 30
0.0
  3
BLOCK_27
  1

  0
POLYLINE
  5
197
  8
0
 62
     7
 66
     1
 10
0.0
 20
0.0
 30
0.0
  0
VERTEX
  5
5C0
  8
0
 62
     7
 10
226.6051686403406
 20
136.4705734073144
 30
0.0
  0
VERTEX
  5
5C1
  8
0
 62
     7
 10
226.6051686403406
 20
122.4713634073149
 30
0.0
  0
VERTEX
  5
5C2
  8
0
 62
     7
 10
212.6041806403408
 20
122.4713634073142
 30
0.0
  0
VERTEX
  5
5C3
  8
0
 62
     7
 10
212.6041806403408
 20
136.4705734073144
 30
0.0
  0
VERTEX
  5
5C4
  8
0
 62
     7
 10
226.6051686403406
 20
136.4705734073144
 30
0.0
  0
SEQEND
  5
BE0
  8
0
 62
     7
  0
ENDBLK
  5
196
  8
0
  0
BLOCK
  8
0
  2
BLOCK_28
 70
     0
 10
0.0
 20
0.0
 30
0.0
  3
BLOCK_28
  1

  0
POLYLINE
  5
1A2
  8
0
 62
     7
 66
     1
 10
0.0
 20
0.0
 30
0.0
  0
VERTEX
  5
5C5
  8
0
 62
     7
 10
45.91845864034062
 20
155.5193034073146
 30
0.0
  0
VERTEX
  5
5C6
  8
0
 62
     7
 10
59.91919264034076
 20
155.5193034073146
 30
0.0
  0
VERTEX
  5
5C7
  8
0
 62
     7
 10
59.91919264034076
 20
141.5198394073148
 30
0.0
  0
VERTEX
  5
5C8
  8
0
 62
     7
 10
45.91845864034062
 20
141.5198394073148
 30
0.0
  0
VERTEX
  5
5C9
  8
0
 62
     7
 10
45.91845864034062
 20
155.5193034073146
 30
0.0
  0
SEQEND
  5
BE1
  8
0
 62
     7
  0
ENDBLK
  5
1A1
  8
0
  0
BLOCK
  8
0
  2
BLOCK_29
 70
     0
 10
0.0
 20
0.0
 30
0.0
  3
BLOCK_29
  1

  0
POLYLINE
  5
1AD
  8
0
 62
     7
 66
     1
 10
0.0
 20
0.0
 30
0.0
  0
VERTEX
  5
5CA
  8
0
 62
     7
 10
247.6127466403409
 20
101.8821234073145
 30
0.0
  0
VERTEX
  5
5CB
  8
0
 62
     7
 10
247.5136866403405
 20
101.7579174073146
 30
0.0
  0
VERTEX
  5
5CC
  8
0
 62
     7
 10
247.4070066403407
 20
101.6423474073144
 30
0.0
  0
VERTEX
  5
5CD
  8
0
 62
     7
 10
247.2927066403409
 20
101.5374454073148
 30
0.0
  0
VERTEX
  5
5CE
  8
0
 62
     7
 10
247.1682466403403
 20
101.4383854073144
 30
0.0
  0
VERTEX
  5
5CF
  8
0
 62
     7
 10
247.0361666403404
 20
101.3515174073148
 30
0.0
  0
VERTEX
  5
5D0
  8
0
 62
     7
 10
246.8990066403405
 20
101.2743014073147
 30
0.0
  0
VERTEX
  5
5D1
  8
0
 62
     7
 10
246.7593066403405
 20
101.2095314073148
 30
0.0
  0
VERTEX
  5
5D2
  8
0
 62
     7
 10
246.6119866403405
 20
101.1544134073144
 30
0.0
  0
VERTEX
  5
5D3
  8
0
 62
     7
 10
246.4595866403405
 20
101.1117414073147
 30
0.0
  0
VERTEX
  5
5D4
  8
0
 62
     7
 10
246.3046466403405
 20
101.0812614073146
 30
0.0
  0
VERTEX
  5
5D5
  8
0
 62
     7
 10
246.1497066403405
 20
101.0634814073145
 30
0.0
  0
VERTEX
  5
5D6
  8
0
 62
     7
 10
245.9947666403405
 20
101.0578934073146
 30
0.0
  0
VERTEX
  5
5D7
  8
0
 62
     7
 10
-35.38160735965945
 20
101.0550994073146
 30
0.0
  0
VERTEX
  5
5D8
  8
0
 62
     7
 10
-35.53730935965929
 20
101.0634814073145
 30
0.0
  0
VERTEX
  5
5D9
  8
0
 62
     7
 10
-35.69453535965937
 20
101.0812614073146
 30
0.0
  0
VERTEX
  5
5DA
  8
0
 62
     7
 10
-35.84744335965925
 20
101.1117414073147
 30
0.0
  0
VERTEX
  5
5DB
  8
0
 62
     7
 10
-36.00035135965946
 20
101.1544134073144
 30
0.0
  0
VERTEX
  5
5DC
  8
0
 62
     7
 10
-36.14640135965943
 20
101.2095314073148
 30
0.0
  0
VERTEX
  5
5DD
  8
0
 62
     7
 10
-36.28838735965945
 20
101.2743014073147
 30
0.0
  0
VERTEX
  5
5DE
  8
0
 62
     7
 10
-36.42630935965954
 20
101.3515174073148
 30
0.0
  0
VERTEX
  5
5DF
  8
0
 62
     7
 10
-36.55711935965945
 20
101.4383854073144
 30
0.0
  0
VERTEX
  5
5E0
  8
0
 62
     7
 10
-36.67980135965945
 20
101.5374454073148
 30
0.0
  0
VERTEX
  5
5E1
  8
0
 62
     7
 10
-36.79562535965924
 20
101.6423474073144
 30
0.0
  0
VERTEX
  5
5E2
  8
0
 62
     7
 10
-36.9017973596595
 20
101.7579174073146
 30
0.0
  0
VERTEX
  5
5E3
  8
0
 62
     7
 10
-36.99958735965927
 20
101.8821234073145
 30
0.0
  0
VERTEX
  5
5E4
  8
0
 62
     7
 10
-37.08772535965952
 20
102.0129334073148
 30
0.0
  0
VERTEX
  5
5E5
  8
0
 62
     7
 10
-37.16341735965933
 20
102.1493314073143
 30
0.0
  0
VERTEX
  5
5E6
  8
0
 62
     7
 10
-37.22971135965923
 20
102.2913174073143
 30
0.0
  0
VERTEX
  5
5E7
  8
0
 62
     7
 10
-37.28330535965939
 20
102.4386374073143
 30
0.0
  0
VERTEX
  5
5E8
  8
0
 62
     7
 10
-37.32623135965932
 20
102.5902754073145
 30
0.0
  0
VERTEX
  5
5E9
  8
0
 62
     7
 10
-37.35645735965951
 20
102.7447074073146
 30
0.0
  0
VERTEX
  5
5EA
  8
0
 62
     7
 10
-37.37576135965954
 20
102.9004094073145
 30
0.0
  0
VERTEX
  5
5EB
  8
0
 62
     7
 10
-37.38261935965943
 20
103.0561114073143
 30
0.0
  0
VERTEX
  5
5EC
  8
0
 62
     7
 10
-37.39303335965941
 20
136.7840094073149
 30
0.0
  0
VERTEX
  5
5ED
  8
0
 62
     7
 10
-32.62977135965922
 20
138.0705194073143
 30
0.0
  0
VERTEX
  5
5EE
  8
0
 62
     7
 10
-32.24521535965945
 20
138.1312254073146
 30
0.0
  0
VERTEX
  5
5EF
  8
0
 62
     7
 10
-31.89672735965938
 20
138.3090254073147
 30
0.0
  0
VERTEX
  5
5F0
  8
0
 62
     7
 10
-31.61961335965923
 20
138.5830914073146
 30
0.0
  0
VERTEX
  5
5F1
  8
0
 62
     7
 10
-31.44333735965938
 20
138.9333574073143
 30
0.0
  0
VERTEX
  5
5F2
  8
0
 62
     7
 10
-31.38136135965937
 20
139.3189294073148
 30
0.0
  0
VERTEX
  5
5F3
  8
0
 62
     7
 10
-31.44333735965938
 20
139.7062794073148
 30
0.0
  0
VERTEX
  5
5F4
  8
0
 62
     7
 10
-31.61961335965923
 20
140.0562914073145
 30
0.0
  0
VERTEX
  5
5F5
  8
0
 62
     7
 10
-31.89672735965938
 20
140.3303574073144
 30
0.0
  0
VERTEX
  5
5F6
  8
0
 62
     7
 10
-32.24521535965945
 20
140.5081574073145
 30
0.0
  0
VERTEX
  5
5F7
  8
0
 62
     7
 10
-32.62977135965922
 20
140.5703874073145
 30
0.0
  0
VERTEX
  5
5F8
  8
0
 62
     7
 10
-37.39303335965941
 20
141.4576094073149
 30
0.0
  0
VERTEX
  5
5F9
  8
0
 62
     7
 10
-37.3818573596593
 20
193.1892814073147
 30
0.0
  0
VERTEX
  5
5FA
  8
0
 62
     7
 10
-37.38160335965936
 20
193.7734814073146
 30
0.0
  0
VERTEX
  5
5FB
  8
0
 62
     7
 10
-37.38134935965943
 20
193.9827774073146
 30
0.0
  0
VERTEX
  5
5FC
  8
0
 62
     7
 10
-37.37576135965954
 20
194.1402574073146
 30
0.0
  0
VERTEX
  5
5FD
  8
0
 62
     7
 10
-37.35645735965951
 20
194.2957054073145
 30
0.0
  0
VERTEX
  5
5FE
  8
0
 62
     7
 10
-37.32623135965932
 20
194.4503914073146
 30
0.0
  0
VERTEX
  5
5FF
  8
0
 62
     7
 10
-37.28330535965939
 20
194.6017754073145
 30
0.0
  0
VERTEX
  5
600
  8
0
 62
     7
 10
-37.22971135965923
 20
194.7490954073145
 30
0.0
  0
VERTEX
  5
601
  8
0
 62
     7
 10
-37.16341735965933
 20
194.8913354073144
 30
0.0
  0
VERTEX
  5
602
  8
0
 62
     7
 10
-37.08772535965952
 20
195.0274794073146
 30
0.0
  0
VERTEX
  5
603
  8
0
 62
     7
 10
-36.99958735965927
 20
195.1582894073146
 30
0.0
  0
VERTEX
  5
604
  8
0
 62
     7
 10
-36.9017973596595
 20
195.2809714073146
 30
0.0
  0
VERTEX
  5
605
  8
0
 62
     7
 10
-36.79562535965924
 20
195.3983194073146
 30
0.0
  0
VERTEX
  5
606
  8
0
 62
     7
 10
-36.67980135965945
 20
195.5029674073146
 30
0.0
  0
VERTEX
  5
607
  8
0
 62
     7
 10
-36.55711935965945
 20
195.6020274073144
 30
0.0
  0
VERTEX
  5
608
  8
0
 62
     7
 10
-36.42630935965954
 20
195.6888954073146
 30
0.0
  0
VERTEX
  5
609
  8
0
 62
     7
 10
-36.28838735965945
 20
195.7661114073147
 30
0.0
  0
VERTEX
  5
60A
  8
0
 62
     7
 10
-36.14640135965943
 20
195.8311354073146
 30
0.0
  0
VERTEX
  5
60B
  8
0
 62
     7
 10
-36.00035135965946
 20
195.8862534073147
 30
0.0
  0
VERTEX
  5
60C
  8
0
 62
     7
 10
-35.84744335965925
 20
195.9274014073144
 30
0.0
  0
VERTEX
  5
60D
  8
0
 62
     7
 10
-35.69453535965937
 20
195.9591514073146
 30
0.0
  0
VERTEX
  5
60E
  8
0
 62
     7
 10
-35.53730935965929
 20
195.9771854073146
 30
0.0
  0
VERTEX
  5
60F
  8
0
 62
     7
 10
-35.38160735965945
 20
195.9837894073145
 30
0.0
  0
VERTEX
  5
610
  8
0
 62
     7
 10
245.9947666403405
 20
195.9825194073145
 30
0.0
  0
VERTEX
  5
611
  8
0
 62
     7
 10
246.1497066403405
 20
195.9771854073146
 30
0.0
  0
VERTEX
  5
612
  8
0
 62
     7
 10
246.3046466403405
 20
195.9591514073146
 30
0.0
  0
VERTEX
  5
613
  8
0
 62
     7
 10
246.4595866403405
 20
195.9274014073144
 30
0.0
  0
VERTEX
  5
614
  8
0
 62
     7
 10
246.6119866403405
 20
195.8862534073147
 30
0.0
  0
VERTEX
  5
615
  8
0
 62
     7
 10
246.7593066403405
 20
195.8311354073146
 30
0.0
  0
VERTEX
  5
616
  8
0
 62
     7
 10
246.8990066403405
 20
195.7661114073147
 30
0.0
  0
VERTEX
  5
617
  8
0
 62
     7
 10
247.0361666403404
 20
195.6888954073146
 30
0.0
  0
VERTEX
  5
618
  8
0
 62
     7
 10
247.1682466403403
 20
195.6020274073147
 30
0.0
  0
VERTEX
  5
619
  8
0
 62
     7
 10
247.2927066403409
 20
195.5029674073146
 30
0.0
  0
VERTEX
  5
61A
  8
0
 62
     7
 10
247.4070066403407
 20
195.3983194073146
 30
0.0
  0
VERTEX
  5
61B
  8
0
 62
     7
 10
247.5136866403405
 20
195.2809714073146
 30
0.0
  0
VERTEX
  5
61C
  8
0
 62
     7
 10
247.6127466403409
 20
195.1582894073146
 30
0.0
  0
VERTEX
  5
61D
  8
0
 62
     7
 10
247.6991066403407
 20
195.0274794073146
 30
0.0
  0
VERTEX
  5
61E
  8
0
 62
     7
 10
247.7753066403403
 20
194.8913354073144
 30
0.0
  0
VERTEX
  5
61F
  8
0
 62
     7
 10
247.8413466403406
 20
194.7490954073145
 30
0.0
  0
VERTEX
  5
620
  8
0
 62
     7
 10
247.8972266403409
 20
194.6017754073145
 30
0.0
  0
VERTEX
  5
621
  8
0
 62
     7
 10
247.9378666403404
 20
194.4503914073146
 30
0.0
  0
VERTEX
  5
622
  8
0
 62
     7
 10
247.9683466403405
 20
194.2957054073145
 30
0.0
  0
VERTEX
  5
623
  8
0
 62
     7
 10
247.9886666403406
 20
194.1402574073146
 30
0.0
  0
VERTEX
  5
624
  8
0
 62
     7
 10
247.9937466403406
 20
193.9827774073146
 30
0.0
  0
VERTEX
  5
625
  8
0
 62
     7
 10
248.0013666403407
 20
141.4576094073149
 30
0.0
  0
VERTEX
  5
626
  8
0
 62
     7
 10
243.241406640341
 20
140.5703874073145
 30
0.0
  0
VERTEX
  5
627
  8
0
 62
     7
 10
242.8553266403405
 20
140.5081574073145
 30
0.0
  0
VERTEX
  5
628
  8
0
 62
     7
 10
242.5073466403404
 20
140.3303574073144
 30
0.0
  0
VERTEX
  5
629
  8
0
 62
     7
 10
242.2330266403405
 20
140.0562914073145
 30
0.0
  0
VERTEX
  5
62A
  8
0
 62
     7
 10
242.0552266403404
 20
139.7062794073148
 30
0.0
  0
VERTEX
  5
62B
  8
0
 62
     7
 10
241.9942666403408
 20
139.3204534073144
 30
0.0
  0
VERTEX
  5
62C
  8
0
 62
     7
 10
242.0552266403404
 20
138.9333574073143
 30
0.0
  0
VERTEX
  5
62D
  8
0
 62
     7
 10
242.2330266403405
 20
138.5830914073146
 30
0.0
  0
VERTEX
  5
62E
  8
0
 62
     7
 10
242.5073466403404
 20
138.3090254073147
 30
0.0
  0
VERTEX
  5
62F
  8
0
 62
     7
 10
242.8553266403405
 20
138.1312254073146
 30
0.0
  0
VERTEX
  5
630
  8
0
 62
     7
 10
243.241406640341
 20
138.0692494073146
 30
0.0
  0
VERTEX
  5
631
  8
0
 62
     7
 10
248.0013666403407
 20
136.7840094073149
 30
0.0
  0
VERTEX
  5
632
  8
0
 62
     7
 10
247.9937466403406
 20
103.0561114073143
 30
0.0
  0
VERTEX
  5
633
  8
0
 62
     7
 10
247.9886666403406
 20
102.9004094073145
 30
0.0
  0
VERTEX
  5
634
  8
0
 62
     7
 10
247.9683466403405
 20
102.7447074073146
 30
0.0
  0
VERTEX
  5
635
  8
0
 62
     7
 10
247.9378666403404
 20
102.5902754073145
 30
0.0
  0
VERTEX
  5
636
  8
0
 62
     7
 10
247.8972266403409
 20
102.4386374073143
 30
0.0
  0
VERTEX
  5
637
  8
0
 62
     7
 10
247.8413466403406
 20
102.2913174073143
 30
0.0
  0
VERTEX
  5
638
  8
0
 62
     7
 10
247.7753066403403
 20
102.1493314073143
 30
0.0
  0
VERTEX
  5
639
  8
0
 62
     7
 10
247.6991066403407
 20
102.0129334073148
 30
0.0
  0
VERTEX
  5
63A
  8
0
 62
     7
 10
247.6127466403409
 20
101.8821234073145
 30
0.0
  0
SEQEND
  5
BE2
  8
0
 62
     7
  0
ENDBLK
  5
1AC
  8
0
  0
BLOCK
  8
0
  2
BLOCK_30
 70
     0
 10
0.0
 20
0.0
 30
0.0
  3
BLOCK_30
  1

  0
POLYLINE
  5
224
  8
0
 62
     7
 66
     1
 10
0.0
 20
0.0
 30
0.0
  0
VERTEX
  5
63B
  8
0
 62
     7
 10
-8.85181535965939
 20
103.4213634073147
 30
0.0
  0
VERTEX
  5
63C
  8
0
 62
     7
 10
-8.85181535965939
 20
117.4208274073148
 30
0.0
  0
VERTEX
  5
63D
  8
0
 62
     7
 10
5.148918640340751
 20
117.4208274073148
 30
0.0
  0
VERTEX
  5
63E
  8
0
 62
     7
 10
5.148918640340751
 20
103.4213634073147
 30
0.0
  0
VERTEX
  5
63F
  8
0
 62
     7
 10
-8.85181535965939
 20
103.4213634073147
 30
0.0
  0
SEQEND
  5
BE3
  8
0
 62
     7
  0
ENDBLK
  5
223
  8
0
  0
BLOCK
  8
0
  2
BLOCK_31
 70
     0
 10
0.0
 20
0.0
 30
0.0
  3
BLOCK_31
  1

  0
POLYLINE
  5
22F
  8
0
 62
     7
 66
     1
 10
0.0
 20
0.0
 30
0.0
  0
VERTEX
  5
640
  8
0
 62
     7
 10
-18.66332735965923
 20
103.4213634073147
 30
0.0
  0
VERTEX
  5
641
  8
0
 62
     7
 10
-32.66279135965937
 20
103.4213634073147
 30
0.0
  0
VERTEX
  5
642
  8
0
 62
     7
 10
-32.66279135965937
 20
117.4208274073148
 30
0.0
  0
VERTEX
  5
643
  8
0
 62
     7
 10
-18.66332735965923
 20
117.4208274073148
 30
0.0
  0
VERTEX
  5
644
  8
0
 62
     7
 10
-18.66332735965923
 20
103.4213634073147
 30
0.0
  0
SEQEND
  5
BE4
  8
0
 62
     7
  0
ENDBLK
  5
22E
  8
0
  0
BLOCK
  8
0
  2
BLOCK_32
 70
     0
 10
0.0
 20
0.0
 30
0.0
  3
BLOCK_32
  1

  0
POLYLINE
  5
23A
  8
0
 62
     7
 66
     1
 10
0.0
 20
0.0
 30
0.0
  0
VERTEX
  5
645
  8
0
 62
     7
 10
28.96141864034067
 20
117.4208274073148
 30
0.0
  0
VERTEX
  5
646
  8
0
 62
     7
 10
28.96141864034067
 20
103.4213634073147
 30
0.0
  0
VERTEX
  5
647
  8
0
 62
     7
 10
14.96220864034079
 20
103.4213634073147
 30
0.0
  0
VERTEX
  5
648
  8
0
 62
     7
 10
14.96220864034047
 20
117.4208274073148
 30
0.0
  0
VERTEX
  5
649
  8
0
 62
     7
 10
28.96141864034067
 20
117.4208274073148
 30
0.0
  0
SEQEND
  5
BE5
  8
0
 62
     7
  0
ENDBLK
  5
239
  8
0
  0
BLOCK
  8
0
  2
BLOCK_33
 70
     0
 10
0.0
 20
0.0
 30
0.0
  3
BLOCK_33
  1

  0
POLYLINE
  5
245
  8
0
 62
     7
 66
     1
 10
0.0
 20
0.0
 30
0.0
  0
VERTEX
  5
64A
  8
0
 62
     7
 10
207.5551686403404
 20
179.6211094073145
 30
0.0
  0
VERTEX
  5
64B
  8
0
 62
     7
 10
193.5551966403404
 20
179.6211094073145
 30
0.0
  0
VERTEX
  5
64C
  8
0
 62
     7
 10
193.5551966403404
 20
193.6205734073147
 30
0.0
  0
VERTEX
  5
64D
  8
0
 62
     7
 10
207.5551686403404
 20
193.6205734073147
 30
0.0
  0
VERTEX
  5
64E
  8
0
 62
     7
 10
207.5551686403404
 20
179.6211094073145
 30
0.0
  0
SEQEND
  5
BE6
  8
0
 62
     7
  0
ENDBLK
  5
244
  8
0
  0
BLOCK
  8
0
  2
BLOCK_34
 70
     0
 10
0.0
 20
0.0
 30
0.0
  3
BLOCK_34
  1

  0
POLYLINE
  5
250
  8
0
 62
     7
 66
     1
 10
0.0
 20
0.0
 30
0.0
  0
VERTEX
  5
64F
  8
0
 62
     7
 10
245.6551686403407
 20
193.6205734073147
 30
0.0
  0
VERTEX
  5
650
  8
0
 62
     7
 10
245.6551686403407
 20
179.6211094073145
 30
0.0
  0
VERTEX
  5
651
  8
0
 62
     7
 10
231.6541806403404
 20
179.6211094073145
 30
0.0
  0
VERTEX
  5
652
  8
0
 62
     7
 10
231.6541806403404
 20
193.6205734073147
 30
0.0
  0
VERTEX
  5
653
  8
0
 62
     7
 10
245.6551686403407
 20
193.6205734073147
 30
0.0
  0
SEQEND
  5
BE7
  8
0
 62
     7
  0
ENDBLK
  5
24F
  8
0
  0
BLOCK
  8
0
  2
BLOCK_35
 70
     0
 10
0.0
 20
0.0
 30
0.0
  3
BLOCK_35
  1

  0
POLYLINE
  5
25B
  8
0
 62
     7
 66
     1
 10
0.0
 20
0.0
 30
0.0
  0
VERTEX
  5
654
  8
0
 62
     7
 10
112.3054226403406
 20
193.6205734073147
 30
0.0
  0
VERTEX
  5
655
  8
0
 62
     7
 10
112.3054226403406
 20
179.6211094073145
 30
0.0
  0
VERTEX
  5
656
  8
0
 62
     7
 10
98.30545064034064
 20
179.6211094073145
 30
0.0
  0
VERTEX
  5
657
  8
0
 62
     7
 10
98.30545064034064
 20
193.6205734073147
 30
0.0
  0
VERTEX
  5
658
  8
0
 62
     7
 10
112.3054226403406
 20
193.6205734073147
 30
0.0
  0
SEQEND
  5
BE8
  8
0
 62
     7
  0
ENDBLK
  5
25A
  8
0
  0
BLOCK
  8
0
  2
BLOCK_36
 70
     0
 10
0.0
 20
0.0
 30
0.0
  3
BLOCK_36
  1

  0
POLYLINE
  5
266
  8
0
 62
     7
 66
     1
 10
0.0
 20
0.0
 30
0.0
  0
VERTEX
  5
659
  8
0
 62
     7
 10
131.3554226403408
 20
193.6205734073147
 30
0.0
  0
VERTEX
  5
65A
  8
0
 62
     7
 10
131.3554226403408
 20
179.6211094073145
 30
0.0
  0
VERTEX
  5
65B
  8
0
 62
     7
 10
117.3544346403404
 20
179.6211094073145
 30
0.0
  0
VERTEX
  5
65C
  8
0
 62
     7
 10
117.3544346403404
 20
193.6205734073147
 30
0.0
  0
VERTEX
  5
65D
  8
0
 62
     7
 10
131.3554226403408
 20
193.6205734073147
 30
0.0
  0
SEQEND
  5
BE9
  8
0
 62
     7
  0
ENDBLK
  5
265
  8
0
  0
BLOCK
  8
0
  2
BLOCK_37
 70
     0
 10
0.0
 20
0.0
 30
0.0
  3
BLOCK_37
  1

  0
POLYLINE
  5
271
  8
0
 62
     7
 66
     1
 10
0.0
 20
0.0
 30
0.0
  0
VERTEX
  5
65E
  8
0
 62
     7
 10
212.6041806403408
 20
193.6205734073147
 30
0.0
  0
VERTEX
  5
65F
  8
0
 62
     7
 10
226.6051686403406
 20
193.6205734073147
 30
0.0
  0
VERTEX
  5
660
  8
0
 62
     7
 10
226.6051686403406
 20
179.6211094073145
 30
0.0
  0
VERTEX
  5
661
  8
0
 62
     7
 10
212.6041806403408
 20
179.6211094073145
 30
0.0
  0
VERTEX
  5
662
  8
0
 62
     7
 10
212.6041806403408
 20
193.6205734073147
 30
0.0
  0
SEQEND
  5
BEA
  8
0
 62
     7
  0
ENDBLK
  5
270
  8
0
  0
BLOCK
  8
0
  2
BLOCK_38
 70
     0
 10
0.0
 20
0.0
 30
0.0
  3
BLOCK_38
  1

  0
POLYLINE
  5
27C
  8
0
 62
     7
 66
     1
 10
0.0
 20
0.0
 30
0.0
  0
VERTEX
  5
663
  8
0
 62
     7
 10
155.4541806403409
 20
193.6205734073147
 30
0.0
  0
VERTEX
  5
664
  8
0
 62
     7
 10
169.4551686403405
 20
193.6205734073147
 30
0.0
  0
VERTEX
  5
665
  8
0
 62
     7
 10
169.4551686403405
 20
179.6211094073145
 30
0.0
  0
VERTEX
  5
666
  8
0
 62
     7
 10
155.4541806403409
 20
179.6211094073145
 30
0.0
  0
VERTEX
  5
667
  8
0
 62
     7
 10
155.4541806403409
 20
193.6205734073147
 30
0.0
  0
SEQEND
  5
BEB
  8
0
 62
     7
  0
ENDBLK
  5
27B
  8
0
  0
BLOCK
  8
0
  2
BLOCK_39
 70
     0
 10
0.0
 20
0.0
 30
0.0
  3
BLOCK_39
  1

  0
POLYLINE
  5
287
  8
0
 62
     7
 66
     1
 10
0.0
 20
0.0
 30
0.0
  0
VERTEX
  5
668
  8
0
 62
     7
 10
150.4054226403404
 20
179.6211094073145
 30
0.0
  0
VERTEX
  5
669
  8
0
 62
     7
 10
136.4054506403404
 20
179.6211094073145
 30
0.0
  0
VERTEX
  5
66A
  8
0
 62
     7
 10
136.4054506403404
 20
193.6205734073147
 30
0.0
  0
VERTEX
  5
66B
  8
0
 62
     7
 10
150.4054226403404
 20
193.6205734073147
 30
0.0
  0
VERTEX
  5
66C
  8
0
 62
     7
 10
150.4054226403404
 20
179.6211094073145
 30
0.0
  0
SEQEND
  5
BEC
  8
0
 62
     7
  0
ENDBLK
  5
286
  8
0
  0
BLOCK
  8
0
  2
BLOCK_40
 70
     0
 10
0.0
 20
0.0
 30
0.0
  3
BLOCK_40
  1

  0
POLYLINE
  5
292
  8
0
 62
     7
 66
     1
 10
0.0
 20
0.0
 30
0.0
  0
VERTEX
  5
66D
  8
0
 62
     7
 10
174.5051966403408
 20
179.6211094073145
 30
0.0
  0
VERTEX
  5
66E
  8
0
 62
     7
 10
174.5051966403408
 20
193.6205734073147
 30
0.0
  0
VERTEX
  5
66F
  8
0
 62
     7
 10
188.5051686403408
 20
193.6205734073147
 30
0.0
  0
VERTEX
  5
670
  8
0
 62
     7
 10
188.5051686403408
 20
179.6211094073145
 30
0.0
  0
VERTEX
  5
671
  8
0
 62
     7
 10
174.5051966403408
 20
179.6211094073145
 30
0.0
  0
SEQEND
  5
BED
  8
0
 62
     7
  0
ENDBLK
  5
291
  8
0
  0
BLOCK
  8
0
  2
BLOCK_41
 70
     0
 10
0.0
 20
0.0
 30
0.0
  3
BLOCK_41
  1

  0
POLYLINE
  5
29D
  8
0
 62
     7
 66
     1
 10
0.0
 20
0.0
 30
0.0
  0
VERTEX
  5
672
  8
0
 62
     7
 10
226.6051686403406
 20
160.5711094073147
 30
0.0
  0
VERTEX
  5
673
  8
0
 62
     7
 10
212.6041806403408
 20
160.5711094073147
 30
0.0
  0
VERTEX
  5
674
  8
0
 62
     7
 10
212.6041806403408
 20
174.5705734073145
 30
0.0
  0
VERTEX
  5
675
  8
0
 62
     7
 10
226.6051686403406
 20
174.5705734073145
 30
0.0
  0
VERTEX
  5
676
  8
0
 62
     7
 10
226.6051686403406
 20
160.5711094073147
 30
0.0
  0
SEQEND
  5
BEE
  8
0
 62
     7
  0
ENDBLK
  5
29C
  8
0
  0
BLOCK
  8
0
  2
BLOCK_42
 70
     0
 10
0.0
 20
0.0
 30
0.0
  3
BLOCK_42
  1

  0
POLYLINE
  5
2A8
  8
0
 62
     7
 66
     1
 10
0.0
 20
0.0
 30
0.0
  0
VERTEX
  5
677
  8
0
 62
     7
 10
3.055958640340509
 20
193.6205734073147
 30
0.0
  0
VERTEX
  5
678
  8
0
 62
     7
 10
17.05516864034071
 20
193.6205734073147
 30
0.0
  0
VERTEX
  5
679
  8
0
 62
     7
 10
17.05516864034071
 20
179.6211094073145
 30
0.0
  0
VERTEX
  5
67A
  8
0
 62
     7
 10
3.055958640340509
 20
179.6211094073145
 30
0.0
  0
VERTEX
  5
67B
  8
0
 62
     7
 10
3.055958640340509
 20
193.6205734073147
 30
0.0
  0
SEQEND
  5
BEF
  8
0
 62
     7
  0
ENDBLK
  5
2A7
  8
0
  0
BLOCK
  8
0
  2
BLOCK_43
 70
     0
 10
0.0
 20
0.0
 30
0.0
  3
BLOCK_43
  1

  0
POLYLINE
  5
2B3
  8
0
 62
     7
 66
     1
 10
0.0
 20
0.0
 30
0.0
  0
VERTEX
  5
67C
  8
0
 62
     7
 10
93.25542264034075
 20
193.6205734073147
 30
0.0
  0
VERTEX
  5
67D
  8
0
 62
     7
 10
93.25542264034075
 20
179.6211094073145
 30
0.0
  0
VERTEX
  5
67E
  8
0
 62
     7
 10
79.25545064034075
 20
179.6211094073145
 30
0.0
  0
VERTEX
  5
67F
  8
0
 62
     7
 10
79.25545064034075
 20
193.6205734073147
 30
0.0
  0
VERTEX
  5
680
  8
0
 62
     7
 10
93.25542264034075
 20
193.6205734073147
 30
0.0
  0
SEQEND
  5
BF0
  8
0
 62
     7
  0
ENDBLK
  5
2B2
  8
0
  0
BLOCK
  8
0
  2
BLOCK_44
 70
     0
 10
0.0
 20
0.0
 30
0.0
  3
BLOCK_44
  1

  0
POLYLINE
  5
2BE
  8
0
 62
     7
 66
     1
 10
0.0
 20
0.0
 30
0.0
  0
VERTEX
  5
681
  8
0
 62
     7
 10
117.3544346403404
 20
174.5705734073145
 30
0.0
  0
VERTEX
  5
682
  8
0
 62
     7
 10
131.3554226403408
 20
174.5705734073145
 30
0.0
  0
VERTEX
  5
683
  8
0
 62
     7
 10
131.3554226403408
 20
160.5711094073147
 30
0.0
  0
VERTEX
  5
684
  8
0
 62
     7
 10
117.3544346403404
 20
160.5711094073147
 30
0.0
  0
VERTEX
  5
685
  8
0
 62
     7
 10
117.3544346403404
 20
174.5705734073145
 30
0.0
  0
SEQEND
  5
BF1
  8
0
 62
     7
  0
ENDBLK
  5
2BD
  8
0
  0
BLOCK
  8
0
  2
BLOCK_45
 70
     0
 10
0.0
 20
0.0
 30
0.0
  3
BLOCK_45
  1

  0
POLYLINE
  5
2C9
  8
0
 62
     7
 66
     1
 10
0.0
 20
0.0
 30
0.0
  0
VERTEX
  5
686
  8
0
 62
     7
 10
41.15595864034057
 20
193.6205734073147
 30
0.0
  0
VERTEX
  5
687
  8
0
 62
     7
 10
55.15516864034077
 20
193.6205734073147
 30
0.0
  0
VERTEX
  5
688
  8
0
 62
     7
 10
55.15516864034077
 20
179.6211094073145
 30
0.0
  0
VERTEX
  5
689
  8
0
 62
     7
 10
41.15595864034057
 20
179.6211094073145
 30
0.0
  0
VERTEX
  5
68A
  8
0
 62
     7
 10
41.15595864034057
 20
193.6205734073147
 30
0.0
  0
SEQEND
  5
BF2
  8
0
 62
     7
  0
ENDBLK
  5
2C8
  8
0
  0
BLOCK
  8
0
  2
BLOCK_46
 70
     0
 10
0.0
 20
0.0
 30
0.0
  3
BLOCK_46
  1

  0
POLYLINE
  5
2D4
  8
0
 62
     7
 66
     1
 10
0.0
 20
0.0
 30
0.0
  0
VERTEX
  5
68B
  8
0
 62
     7
 10
36.10516864034058
 20
193.6205734073147
 30
0.0
  0
VERTEX
  5
68C
  8
0
 62
     7
 10
36.10516864034058
 20
179.6211094073145
 30
0.0
  0
VERTEX
  5
68D
  8
0
 62
     7
 10
22.10443464034076
 20
179.6211094073145
 30
0.0
  0
VERTEX
  5
68E
  8
0
 62
     7
 10
22.10443464034076
 20
193.6205734073147
 30
0.0
  0
VERTEX
  5
68F
  8
0
 62
     7
 10
36.10516864034058
 20
193.6205734073147
 30
0.0
  0
SEQEND
  5
BF3
  8
0
 62
     7
  0
ENDBLK
  5
2D3
  8
0
  0
BLOCK
  8
0
  2
BLOCK_47
 70
     0
 10
0.0
 20
0.0
 30
0.0
  3
BLOCK_47
  1

  0
POLYLINE
  5
2DF
  8
0
 62
     7
 66
     1
 10
0.0
 20
0.0
 30
0.0
  0
VERTEX
  5
690
  8
0
 62
     7
 10
-1.994577359659223
 20
179.6211094073145
 30
0.0
  0
VERTEX
  5
691
  8
0
 62
     7
 10
-15.9942953596593
 20
179.6211094073145
 30
0.0
  0
VERTEX
  5
692
  8
0
 62
     7
 10
-15.9942953596593
 20
193.6205734073147
 30
0.0
  0
VERTEX
  5
693
  8
0
 62
     7
 10
-1.994577359659223
 20
193.6205734073147
 30
0.0
  0
VERTEX
  5
694
  8
0
 62
     7
 10
-1.994577359659223
 20
179.6211094073145
 30
0.0
  0
SEQEND
  5
BF4
  8
0
 62
     7
  0
ENDBLK
  5
2DE
  8
0
  0
BLOCK
  8
0
  2
BLOCK_48
 70
     0
 10
0.0
 20
0.0
 30
0.0
  3
BLOCK_48
  1

  0
POLYLINE
  5
2EA
  8
0
 62
     7
 66
     1
 10
0.0
 20
0.0
 30
0.0
  0
VERTEX
  5
695
  8
0
 62
     7
 10
98.30545064034064
 20
174.5705734073145
 30
0.0
  0
VERTEX
  5
696
  8
0
 62
     7
 10
112.3054226403406
 20
174.5705734073145
 30
0.0
  0
VERTEX
  5
697
  8
0
 62
     7
 10
112.3054226403406
 20
160.5711094073147
 30
0.0
  0
VERTEX
  5
698
  8
0
 62
     7
 10
98.30545064034064
 20
160.5711094073147
 30
0.0
  0
VERTEX
  5
699
  8
0
 62
     7
 10
98.30545064034064
 20
174.5705734073145
 30
0.0
  0
SEQEND
  5
BF5
  8
0
 62
     7
  0
ENDBLK
  5
2E9
  8
0
  0
BLOCK
  8
0
  2
BLOCK_49
 70
     0
 10
0.0
 20
0.0
 30
0.0
  3
BLOCK_49
  1

  0
POLYLINE
  5
2F5
  8
0
 62
     7
 66
     1
 10
0.0
 20
0.0
 30
0.0
  0
VERTEX
  5
69A
  8
0
 62
     7
 10
231.6541806403404
 20
160.5711094073147
 30
0.0
  0
VERTEX
  5
69B
  8
0
 62
     7
 10
231.6541806403404
 20
174.5705734073145
 30
0.0
  0
VERTEX
  5
69C
  8
0
 62
     7
 10
245.6551686403407
 20
174.5705734073145
 30
0.0
  0
VERTEX
  5
69D
  8
0
 62
     7
 10
245.6551686403407
 20
160.5711094073147
 30
0.0
  0
VERTEX
  5
69E
  8
0
 62
     7
 10
231.6541806403404
 20
160.5711094073147
 30
0.0
  0
SEQEND
  5
BF6
  8
0
 62
     7
  0
ENDBLK
  5
2F4
  8
0
  0
BLOCK
  8
0
  2
BLOCK_50
 70
     0
 10
0.0
 20
0.0
 30
0.0
  3
BLOCK_50
  1

  0
POLYLINE
  5
300
  8
0
 62
     7
 66
     1
 10
0.0
 20
0.0
 30
0.0
  0
VERTEX
  5
69F
  8
0
 62
     7
 10
174.5051966403408
 20
160.5711094073147
 30
0.0
  0
VERTEX
  5
6A0
  8
0
 62
     7
 10
174.5051966403408
 20
174.5705734073145
 30
0.0
  0
VERTEX
  5
6A1
  8
0
 62
     7
 10
188.5051686403408
 20
174.5705734073145
 30
0.0
  0
VERTEX
  5
6A2
  8
0
 62
     7
 10
188.5051686403408
 20
160.5711094073147
 30
0.0
  0
VERTEX
  5
6A3
  8
0
 62
     7
 10
174.5051966403408
 20
160.5711094073147
 30
0.0
  0
SEQEND
  5
BF7
  8
0
 62
     7
  0
ENDBLK
  5
2FF
  8
0
  0
BLOCK
  8
0
  2
BLOCK_51
 70
     0
 10
0.0
 20
0.0
 30
0.0
  3
BLOCK_51
  1

  0
POLYLINE
  5
30B
  8
0
 62
     7
 66
     1
 10
0.0
 20
0.0
 30
0.0
  0
VERTEX
  5
6A4
  8
0
 62
     7
 10
169.4551686403405
 20
160.5711094073147
 30
0.0
  0
VERTEX
  5
6A5
  8
0
 62
     7
 10
155.4541806403409
 20
160.5711094073147
 30
0.0
  0
VERTEX
  5
6A6
  8
0
 62
     7
 10
155.4541806403409
 20
174.5705734073145
 30
0.0
  0
VERTEX
  5
6A7
  8
0
 62
     7
 10
169.4551686403405
 20
174.5705734073145
 30
0.0
  0
VERTEX
  5
6A8
  8
0
 62
     7
 10
169.4551686403405
 20
160.5711094073147
 30
0.0
  0
SEQEND
  5
BF8
  8
0
 62
     7
  0
ENDBLK
  5
30A
  8
0
  0
BLOCK
  8
0
  2
BLOCK_52
 70
     0
 10
0.0
 20
0.0
 30
0.0
  3
BLOCK_52
  1

  0
POLYLINE
  5
316
  8
0
 62
     7
 66
     1
 10
0.0
 20
0.0
 30
0.0
  0
VERTEX
  5
6A9
  8
0
 62
     7
 10
93.25542264034075
 20
174.5705734073145
 30
0.0
  0
VERTEX
  5
6AA
  8
0
 62
     7
 10
93.25542264034075
 20
160.5711094073147
 30
0.0
  0
VERTEX
  5
6AB
  8
0
 62
     7
 10
79.25545064034075
 20
160.5711094073147
 30
0.0
  0
VERTEX
  5
6AC
  8
0
 62
     7
 10
79.25545064034075
 20
174.5705734073145
 30
0.0
  0
VERTEX
  5
6AD
  8
0
 62
     7
 10
93.25542264034075
 20
174.5705734073145
 30
0.0
  0
SEQEND
  5
BF9
  8
0
 62
     7
  0
ENDBLK
  5
315
  8
0
  0
BLOCK
  8
0
  2
BLOCK_53
 70
     0
 10
0.0
 20
0.0
 30
0.0
  3
BLOCK_53
  1

  0
POLYLINE
  5
321
  8
0
 62
     7
 66
     1
 10
0.0
 20
0.0
 30
0.0
  0
VERTEX
  5
6AE
  8
0
 62
     7
 10
-35.04404135965923
 20
179.6211094073145
 30
0.0
  0
VERTEX
  5
6AF
  8
0
 62
     7
 10
-35.04404135965923
 20
193.6205734073147
 30
0.0
  0
VERTEX
  5
6B0
  8
0
 62
     7
 10
-21.04457735965941
 20
193.6205734073147
 30
0.0
  0
VERTEX
  5
6B1
  8
0
 62
     7
 10
-21.04457735965941
 20
179.6211094073145
 30
0.0
  0
VERTEX
  5
6B2
  8
0
 62
     7
 10
-35.04404135965923
 20
179.6211094073145
 30
0.0
  0
SEQEND
  5
BFA
  8
0
 62
     7
  0
ENDBLK
  5
320
  8
0
  0
BLOCK
  8
0
  2
BLOCK_54
 70
     0
 10
0.0
 20
0.0
 30
0.0
  3
BLOCK_54
  1

  0
POLYLINE
  5
32C
  8
0
 62
     7
 66
     1
 10
0.0
 20
0.0
 30
0.0
  0
VERTEX
  5
6B3
  8
0
 62
     7
 10
136.4054506403404
 20
174.5705734073145
 30
0.0
  0
VERTEX
  5
6B4
  8
0
 62
     7
 10
150.4054226403404
 20
174.5705734073145
 30
0.0
  0
VERTEX
  5
6B5
  8
0
 62
     7
 10
150.4054226403404
 20
160.5711094073147
 30
0.0
  0
VERTEX
  5
6B6
  8
0
 62
     7
 10
136.4054506403404
 20
160.5711094073147
 30
0.0
  0
VERTEX
  5
6B7
  8
0
 62
     7
 10
136.4054506403404
 20
174.5705734073145
 30
0.0
  0
SEQEND
  5
BFB
  8
0
 62
     7
  0
ENDBLK
  5
32B
  8
0
  0
BLOCK
  8
0
  2
BLOCK_55
 70
     0
 10
0.0
 20
0.0
 30
0.0
  3
BLOCK_55
  1

  0
POLYLINE
  5
337
  8
0
 62
     7
 66
     1
 10
0.0
 20
0.0
 30
0.0
  0
VERTEX
  5
6B8
  8
0
 62
     7
 10
207.5551686403404
 20
160.5711094073147
 30
0.0
  0
VERTEX
  5
6B9
  8
0
 62
     7
 10
193.5551966403404
 20
160.5711094073147
 30
0.0
  0
VERTEX
  5
6BA
  8
0
 62
     7
 10
193.5551966403404
 20
174.5705734073145
 30
0.0
  0
VERTEX
  5
6BB
  8
0
 62
     7
 10
207.5551686403404
 20
174.5705734073145
 30
0.0
  0
VERTEX
  5
6BC
  8
0
 62
     7
 10
207.5551686403404
 20
160.5711094073147
 30
0.0
  0
SEQEND
  5
BFC
  8
0
 62
     7
  0
ENDBLK
  5
336
  8
0
  0
BLOCK
  8
0
  2
BLOCK_56
 70
     0
 10
0.0
 20
0.0
 30
0.0
  3
BLOCK_56
  1

  0
POLYLINE
  5
342
  8
0
 62
     7
 66
     1
 10
0.0
 20
0.0
 30
0.0
  0
VERTEX
  5
6BD
  8
0
 62
     7
 10
60.20595864034076
 20
193.6205734073147
 30
0.0
  0
VERTEX
  5
6BE
  8
0
 62
     7
 10
74.2054226403406
 20
193.6205734073147
 30
0.0
  0
VERTEX
  5
6BF
  8
0
 62
     7
 10
74.2054226403406
 20
179.6211094073145
 30
0.0
  0
VERTEX
  5
6C0
  8
0
 62
     7
 10
60.20595864034076
 20
179.6211094073145
 30
0.0
  0
VERTEX
  5
6C1
  8
0
 62
     7
 10
60.20595864034076
 20
193.6205734073147
 30
0.0
  0
SEQEND
  5
BFD
  8
0
 62
     7
  0
ENDBLK
  5
341
  8
0
  0
BLOCK
  8
0
  2
BLOCK_57
 70
     0
 10
0.0
 20
0.0
 30
0.0
  3
BLOCK_57
  1

  0
POLYLINE
  5
34D
  8
0
 62
     7
 66
     1
 10
0.0
 20
0.0
 30
0.0
  0
VERTEX
  5
6C2
  8
0
 62
     7
 10
117.0674146403405
 20
141.5198394073148
 30
0.0
  0
VERTEX
  5
6C3
  8
0
 62
     7
 10
103.0684586403406
 20
141.5198394073148
 30
0.0
  0
VERTEX
  5
6C4
  8
0
 62
     7
 10
103.0684586403406
 20
155.5193034073146
 30
0.0
  0
VERTEX
  5
6C5
  8
0
 62
     7
 10
117.0674146403405
 20
155.5193034073146
 30
0.0
  0
VERTEX
  5
6C6
  8
0
 62
     7
 10
117.0674146403405
 20
141.5198394073148
 30
0.0
  0
SEQEND
  5
BFE
  8
0
 62
     7
  0
ENDBLK
  5
34C
  8
0
  0
BLOCK
  8
0
  2
BLOCK_58
 70
     0
 10
0.0
 20
0.0
 30
0.0
  3
BLOCK_58
  1

  0
POLYLINE
  5
358
  8
0
 62
     7
 66
     1
 10
0.0
 20
0.0
 30
0.0
  0
VERTEX
  5
6C7
  8
0
 62
     7
 10
193.5551966403404
 20
155.5193034073146
 30
0.0
  0
VERTEX
  5
6C8
  8
0
 62
     7
 10
207.5551686403404
 20
155.5193034073146
 30
0.0
  0
VERTEX
  5
6C9
  8
0
 62
     7
 10
207.5551686403404
 20
141.5198394073148
 30
0.0
  0
VERTEX
  5
6CA
  8
0
 62
     7
 10
193.5551966403404
 20
141.5198394073148
 30
0.0
  0
VERTEX
  5
6CB
  8
0
 62
     7
 10
193.5551966403404
 20
155.5193034073146
 30
0.0
  0
SEQEND
  5
BFF
  8
0
 62
     7
  0
ENDBLK
  5
357
  8
0
  0
BLOCK
  8
0
  2
BLOCK_59
 70
     0
 10
0.0
 20
0.0
 30
0.0
  3
BLOCK_59
  1

  0
POLYLINE
  5
363
  8
0
 62
     7
 66
     1
 10
0.0
 20
0.0
 30
0.0
  0
VERTEX
  5
6CC
  8
0
 62
     7
 10
141.1682046403407
 20
141.5198394073148
 30
0.0
  0
VERTEX
  5
6CD
  8
0
 62
     7
 10
141.1682046403407
 20
155.5193034073146
 30
0.0
  0
VERTEX
  5
6CE
  8
0
 62
     7
 10
155.1691926403404
 20
155.5193034073146
 30
0.0
  0
VERTEX
  5
6CF
  8
0
 62
     7
 10
155.1691926403404
 20
141.5198394073148
 30
0.0
  0
VERTEX
  5
6D0
  8
0
 62
     7
 10
141.1682046403407
 20
141.5198394073148
 30
0.0
  0
SEQEND
  5
C00
  8
0
 62
     7
  0
ENDBLK
  5
362
  8
0
  0
BLOCK
  8
0
  2
BLOCK_60
 70
     0
 10
0.0
 20
0.0
 30
0.0
  3
BLOCK_60
  1

  0
POLYLINE
  5
36E
  8
0
 62
     7
 66
     1
 10
0.0
 20
0.0
 30
0.0
  0
VERTEX
  5
6D1
  8
0
 62
     7
 10
78.96741464034075
 20
141.5198394073148
 30
0.0
  0
VERTEX
  5
6D2
  8
0
 62
     7
 10
64.96845864034049
 20
141.5198394073148
 30
0.0
  0
VERTEX
  5
6D3
  8
0
 62
     7
 10
64.96845864034049
 20
155.5193034073146
 30
0.0
  0
VERTEX
  5
6D4
  8
0
 62
     7
 10
78.96741464034075
 20
155.5193034073146
 30
0.0
  0
VERTEX
  5
6D5
  8
0
 62
     7
 10
78.96741464034075
 20
141.5198394073148
 30
0.0
  0
SEQEND
  5
C01
  8
0
 62
     7
  0
ENDBLK
  5
36D
  8
0
  0
BLOCK
  8
0
  2
BLOCK_61
 70
     0
 10
0.0
 20
0.0
 30
0.0
  3
BLOCK_61
  1

  0
POLYLINE
  5
379
  8
0
 62
     7
 66
     1
 10
0.0
 20
0.0
 30
0.0
  0
VERTEX
  5
6D6
  8
0
 62
     7
 10
36.10516864034058
 20
174.5705734073145
 30
0.0
  0
VERTEX
  5
6D7
  8
0
 62
     7
 10
36.10516864034058
 20
160.5711094073147
 30
0.0
  0
VERTEX
  5
6D8
  8
0
 62
     7
 10
22.10443464034076
 20
160.5711094073147
 30
0.0
  0
VERTEX
  5
6D9
  8
0
 62
     7
 10
22.10443464034076
 20
174.5705734073145
 30
0.0
  0
VERTEX
  5
6DA
  8
0
 62
     7
 10
36.10516864034058
 20
174.5705734073145
 30
0.0
  0
SEQEND
  5
C02
  8
0
 62
     7
  0
ENDBLK
  5
378
  8
0
  0
BLOCK
  8
0
  2
BLOCK_62
 70
     0
 10
0.0
 20
0.0
 30
0.0
  3
BLOCK_62
  1

  0
POLYLINE
  5
384
  8
0
 62
     7
 66
     1
 10
0.0
 20
0.0
 30
0.0
  0
VERTEX
  5
6DB
  8
0
 62
     7
 10
17.05516864034071
 20
174.5705734073145
 30
0.0
  0
VERTEX
  5
6DC
  8
0
 62
     7
 10
17.05516864034071
 20
160.5711094073147
 30
0.0
  0
VERTEX
  5
6DD
  8
0
 62
     7
 10
3.055958640340509
 20
160.5711094073147
 30
0.0
  0
VERTEX
  5
6DE
  8
0
 62
     7
 10
3.055958640340509
 20
174.5705734073145
 30
0.0
  0
VERTEX
  5
6DF
  8
0
 62
     7
 10
17.05516864034071
 20
174.5705734073145
 30
0.0
  0
SEQEND
  5
C03
  8
0
 62
     7
  0
ENDBLK
  5
383
  8
0
  0
BLOCK
  8
0
  2
BLOCK_63
 70
     0
 10
0.0
 20
0.0
 30
0.0
  3
BLOCK_63
  1

  0
POLYLINE
  5
38F
  8
0
 62
     7
 66
     1
 10
0.0
 20
0.0
 30
0.0
  0
VERTEX
  5
6E0
  8
0
 62
     7
 10
136.1194466403408
 20
155.5193034073146
 30
0.0
  0
VERTEX
  5
6E1
  8
0
 62
     7
 10
136.1194466403408
 20
141.5198394073148
 30
0.0
  0
VERTEX
  5
6E2
  8
0
 62
     7
 10
122.1184586403404
 20
141.5198394073148
 30
0.0
  0
VERTEX
  5
6E3
  8
0
 62
     7
 10
122.1184586403404
 20
155.5193034073146
 30
0.0
  0
VERTEX
  5
6E4
  8
0
 62
     7
 10
136.1194466403408
 20
155.5193034073146
 30
0.0
  0
SEQEND
  5
C04
  8
0
 62
     7
  0
ENDBLK
  5
38E
  8
0
  0
BLOCK
  8
0
  2
BLOCK_64
 70
     0
 10
0.0
 20
0.0
 30
0.0
  3
BLOCK_64
  1

  0
POLYLINE
  5
39A
  8
0
 62
     7
 66
     1
 10
0.0
 20
0.0
 30
0.0
  0
VERTEX
  5
6E5
  8
0
 62
     7
 10
84.0184586403407
 20
155.5193034073146
 30
0.0
  0
VERTEX
  5
6E6
  8
0
 62
     7
 10
98.01944664034076
 20
155.5193034073146
 30
0.0
  0
VERTEX
  5
6E7
  8
0
 62
     7
 10
98.01944664034076
 20
141.5198394073148
 30
0.0
  0
VERTEX
  5
6E8
  8
0
 62
     7
 10
84.0184586403407
 20
141.5198394073148
 30
0.0
  0
VERTEX
  5
6E9
  8
0
 62
     7
 10
84.0184586403407
 20
155.5193034073146
 30
0.0
  0
SEQEND
  5
C05
  8
0
 62
     7
  0
ENDBLK
  5
399
  8
0
  0
BLOCK
  8
0
  2
BLOCK_65
 70
     0
 10
0.0
 20
0.0
 30
0.0
  3
BLOCK_65
  1

  0
POLYLINE
  5
3A5
  8
0
 62
     7
 66
     1
 10
0.0
 20
0.0
 30
0.0
  0
VERTEX
  5
6EA
  8
0
 62
     7
 10
-1.994577359659223
 20
174.5705734073145
 30
0.0
  0
VERTEX
  5
6EB
  8
0
 62
     7
 10
-1.994577359659223
 20
160.5711094073147
 30
0.0
  0
VERTEX
  5
6EC
  8
0
 62
     7
 10
-15.9942953596593
 20
160.5711094073147
 30
0.0
  0
VERTEX
  5
6ED
  8
0
 62
     7
 10
-15.9942953596593
 20
174.5705734073145
 30
0.0
  0
VERTEX
  5
6EE
  8
0
 62
     7
 10
-1.994577359659223
 20
174.5705734073145
 30
0.0
  0
SEQEND
  5
C06
  8
0
 62
     7
  0
ENDBLK
  5
3A4
  8
0
  0
BLOCK
  8
0
  2
BLOCK_66
 70
     0
 10
0.0
 20
0.0
 30
0.0
  3
BLOCK_66
  1

  0
POLYLINE
  5
3B0
  8
0
 62
     7
 66
     1
 10
0.0
 20
0.0
 30
0.0
  0
VERTEX
  5
6EF
  8
0
 62
     7
 10
-21.04457735965941
 20
160.5711094073147
 30
0.0
  0
VERTEX
  5
6F0
  8
0
 62
     7
 10
-35.04404135965923
 20
160.5711094073147
 30
0.0
  0
VERTEX
  5
6F1
  8
0
 62
     7
 10
-35.04404135965923
 20
174.5705734073145
 30
0.0
  0
VERTEX
  5
6F2
  8
0
 62
     7
 10
-21.04457735965941
 20
174.5705734073145
 30
0.0
  0
VERTEX
  5
6F3
  8
0
 62
     7
 10
-21.04457735965941
 20
160.5711094073147
 30
0.0
  0
SEQEND
  5
C07
  8
0
 62
     7
  0
ENDBLK
  5
3AF
  8
0
  0
BLOCK
  8
0
  2
BLOCK_67
 70
     0
 10
0.0
 20
0.0
 30
0.0
  3
BLOCK_67
  1

  0
POLYLINE
  5
3BB
  8
0
 62
     7
 66
     1
 10
0.0
 20
0.0
 30
0.0
  0
VERTEX
  5
6F4
  8
0
 62
     7
 10
245.6551686403407
 20
141.5198394073148
 30
0.0
  0
VERTEX
  5
6F5
  8
0
 62
     7
 10
231.6541806403404
 20
141.5198394073148
 30
0.0
  0
VERTEX
  5
6F6
  8
0
 62
     7
 10
231.6541806403404
 20
155.5193034073146
 30
0.0
  0
VERTEX
  5
6F7
  8
0
 62
     7
 10
245.6551686403407
 20
155.5193034073146
 30
0.0
  0
VERTEX
  5
6F8
  8
0
 62
     7
 10
245.6551686403407
 20
141.5198394073148
 30
0.0
  0
SEQEND
  5
C08
  8
0
 62
     7
  0
ENDBLK
  5
3BA
  8
0
  0
BLOCK
  8
0
  2
BLOCK_68
 70
     0
 10
0.0
 20
0.0
 30
0.0
  3
BLOCK_68
  1

  0
POLYLINE
  5
3C6
  8
0
 62
     7
 66
     1
 10
0.0
 20
0.0
 30
0.0
  0
VERTEX
  5
6F9
  8
0
 62
     7
 10
181.3601486403405
 20
141.5198394073148
 30
0.0
  0
VERTEX
  5
6FA
  8
0
 62
     7
 10
167.3601766403406
 20
141.5198394073148
 30
0.0
  0
VERTEX
  5
6FB
  8
0
 62
     7
 10
167.3601766403406
 20
155.5193034073146
 30
0.0
  0
VERTEX
  5
6FC
  8
0
 62
     7
 10
181.3601486403405
 20
155.5193034073146
 30
0.0
  0
VERTEX
  5
6FD
  8
0
 62
     7
 10
181.3601486403405
 20
141.5198394073148
 30
0.0
  0
SEQEND
  5
C09
  8
0
 62
     7
  0
ENDBLK
  5
3C5
  8
0
  0
BLOCK
  8
0
  2
BLOCK_69
 70
     0
 10
0.0
 20
0.0
 30
0.0
  3
BLOCK_69
  1

  0
POLYLINE
  5
3D1
  8
0
 62
     7
 66
     1
 10
0.0
 20
0.0
 30
0.0
  0
VERTEX
  5
6FE
  8
0
 62
     7
 10
226.6051686403406
 20
155.5193034073146
 30
0.0
  0
VERTEX
  5
6FF
  8
0
 62
     7
 10
226.6051686403406
 20
141.5198394073148
 30
0.0
  0
VERTEX
  5
700
  8
0
 62
     7
 10
212.6041806403408
 20
141.5198394073148
 30
0.0
  0
VERTEX
  5
701
  8
0
 62
     7
 10
212.6041806403408
 20
155.5193034073146
 30
0.0
  0
VERTEX
  5
702
  8
0
 62
     7
 10
226.6051686403406
 20
155.5193034073146
 30
0.0
  0
SEQEND
  5
C0A
  8
0
 62
     7
  0
ENDBLK
  5
3D0
  8
0
  0
BLOCK
  8
0
  2
BLOCK_70
 70
     0
 10
0.0
 20
0.0
 30
0.0
  3
BLOCK_70
  1

  0
POLYLINE
  5
3DC
  8
0
 62
     7
 66
     1
 10
0.0
 20
0.0
 30
0.0
  0
VERTEX
  5
703
  8
0
 62
     7
 10
74.2054226403406
 20
174.5705734073145
 30
0.0
  0
VERTEX
  5
704
  8
0
 62
     7
 10
74.2054226403406
 20
160.5711094073147
 30
0.0
  0
VERTEX
  5
705
  8
0
 62
     7
 10
60.20595864034076
 20
160.5711094073147
 30
0.0
  0
VERTEX
  5
706
  8
0
 62
     7
 10
60.20595864034076
 20
174.5705734073145
 30
0.0
  0
VERTEX
  5
707
  8
0
 62
     7
 10
74.2054226403406
 20
174.5705734073145
 30
0.0
  0
SEQEND
  5
C0B
  8
0
 62
     7
  0
ENDBLK
  5
3DB
  8
0
  0
BLOCK
  8
0
  2
BLOCK_71
 70
     0
 10
0.0
 20
0.0
 30
0.0
  3
BLOCK_71
  1

  0
POLYLINE
  5
3E7
  8
0
 62
     7
 66
     1
 10
0.0
 20
0.0
 30
0.0
  0
VERTEX
  5
708
  8
0
 62
     7
 10
55.15516864034077
 20
160.5711094073147
 30
0.0
  0
VERTEX
  5
709
  8
0
 62
     7
 10
41.15595864034057
 20
160.5711094073147
 30
0.0
  0
VERTEX
  5
70A
  8
0
 62
     7
 10
41.15595864034057
 20
174.5705734073145
 30
0.0
  0
VERTEX
  5
70B
  8
0
 62
     7
 10
55.15516864034077
 20
174.5705734073145
 30
0.0
  0
VERTEX
  5
70C
  8
0
 62
     7
 10
55.15516864034077
 20
160.5711094073147
 30
0.0
  0
SEQEND
  5
C0C
  8
0
 62
     7
  0
ENDBLK
  5
3E6
  8
0
  0
BLOCK
  8
0
  2
BLOCK_72
 70
     0
 10
0.0
 20
0.0
 30
0.0
  3
BLOCK_72
  1

  0
POLYLINE
  5
3F2
  8
0
 62
     7
 66
     1
 10
0.0
 20
0.0
 30
0.0
  0
VERTEX
  5
70D
  8
0
 62
     7
 10
3.207850640340642
 20
120.0101034073147
 30
0.0
  0
VERTEX
  5
70E
  8
0
 62
     7
 10
3.201874694873376
 20
120.1812525568764
 30
0.0
  0
VERTEX
  5
70F
  8
0
 62
     7
 10
3.184616213441568
 20
120.3492926101529
 30
0.0
  0
VERTEX
  5
710
  8
0
 62
     7
 10
3.156447967031177
 20
120.5138517040645
 30
0.0
  0
VERTEX
  5
711
  8
0
 62
     7
 10
3.117742726628169
 20
120.6745579755319
 30
0.0
  0
VERTEX
  5
712
  8
0
 62
     7
 10
3.068873263218504
 20
120.8310395614755
 30
0.0
  0
VERTEX
  5
713
  8
0
 62
     7
 10
3.010212347788148
 20
120.9829245988159
 30
0.0
  0
VERTEX
  5
714
  8
0
 62
     7
 10
2.942132751323058
 20
121.1298412244734
 30
0.0
  0
VERTEX
  5
715
  8
0
 62
     7
 10
2.865007244809202
 20
121.2714175753687
 30
0.0
  0
VERTEX
  5
716
  8
0
 62
     7
 10
2.779208599232539
 20
121.4072817884223
 30
0.0
  0
VERTEX
  5
717
  8
0
 62
     7
 10
2.685109585579033
 20
121.5370620005546
 30
0.0
  0
VERTEX
  5
718
  8
0
 62
     7
 10
2.583082974834646
 20
121.6603863486861
 30
0.0
  0
VERTEX
  5
719
  8
0
 62
     7
 10
2.47350153798534
 20
121.7768829697373
 30
0.0
  0
VERTEX
  5
71A
  8
0
 62
     7
 10
2.35673804601708
 20
121.8861800006289
 30
0.0
  0
VERTEX
  5
71B
  8
0
 62
     7
 10
2.233165269915825
 20
121.9879055782811
 30
0.0
  0
VERTEX
  5
71C
  8
0
 62
     7
 10
2.103155980667541
 20
122.0816878396146
 30
0.0
  0
VERTEX
  5
71D
  8
0
 62
     7
 10
1.967082949258188
 20
122.1671549215498
 30
0.0
  0
VERTEX
  5
71E
  8
0
 62
     7
 10
1.825318946673729
 20
122.2439349610073
 30
0.0
  0
VERTEX
  5
71F
  8
0
 62
     7
 10
1.678236743900127
 20
122.3116560949075
 30
0.0
  0
VERTEX
  5
720
  8
0
 62
     7
 10
1.526209111923344
 20
122.369946460171
 30
0.0
  0
VERTEX
  5
721
  8
0
 62
     7
 10
1.369608821729343
 20
122.4184341937183
 30
0.0
  0
VERTEX
  5
722
  8
0
 62
     7
 10
1.208808644304086
 20
122.4567474324698
 30
0.0
  0
VERTEX
  5
723
  8
0
 62
     7
 10
1.044181350633537
 20
122.484514313346
 30
0.0
  0
VERTEX
  5
724
  8
0
 62
     7
 10
0.8760997117036564
 20
122.5013629732675
 30
0.0
  0
VERTEX
  5
725
  8
0
 62
     7
 10
0.704936498500408
 20
122.5069215491548
 30
0.0
  0
VERTEX
  5
726
  8
0
 62
     7
 10
0.5337873489386078
 20
122.5009456036876
 30
0.0
  0
VERTEX
  5
727
  8
0
 62
     7
 10
0.3657472956620958
 20
122.4836871222557
 30
0.0
  0
VERTEX
  5
728
  8
0
 62
     7
 10
0.2011882017503702
 20
122.4555188758453
 30
0.0
  0
VERTEX
  5
729
  8
0
 62
     7
 10
0.0404819302829282
 20
122.4168136354423
 30
0.0
  0
VERTEX
  5
72A
  8
0
 62
     7
 10
-0.1159996556607324
 20
122.3679441720327
 30
0.0
  0
VERTEX
  5
72B
  8
0
 62
     7
 10
-0.2678846930011141
 20
122.3092832566024
 30
0.0
  0
VERTEX
  5
72C
  8
0
 62
     7
 10
-0.4148013186587192
 20
122.2412036601373
 30
0.0
  0
VERTEX
  5
72D
  8
0
 62
     7
 10
-0.5563776695540507
 20
122.1640781536235
 30
0.0
  0
VERTEX
  5
72E
  8
0
 62
     7
 10
-0.6922418826076101
 20
122.0782795080468
 30
0.0
  0
VERTEX
  5
72F
  8
0
 62
     7
 10
-0.8220220947399008
 20
121.9841804943933
 30
0.0
  0
VERTEX
  5
730
  8
0
 62
     7
 10
-0.9453464428714242
 20
121.882153883649
 30
0.0
  0
VERTEX
  5
731
  8
0
 62
     7
 10
-1.061843063922684
 20
121.7725724467997
 30
0.0
  0
VERTEX
  5
732
  8
0
 62
     7
 10
-1.171140094814181
 20
121.6558089548314
 30
0.0
  0
VERTEX
  5
733
  8
0
 62
     7
 10
-1.272865672466419
 20
121.5322361787302
 30
0.0
  0
VERTEX
  5
734
  8
0
 62
     7
 10
-1.3666479337999
 20
121.4022268894819
 30
0.0
  0
VERTEX
  5
735
  8
0
 62
     7
 10
-1.452115015735126
 20
121.2661538580726
 30
0.0
  0
VERTEX
  5
736
  8
0
 62
     7
 10
-1.5288950551926
 20
121.1243898554881
 30
0.0
  0
VERTEX
  5
737
  8
0
 62
     7
 10
-1.596616189092825
 20
120.9773076527146
 30
0.0
  0
VERTEX
  5
738
  8
0
 62
     7
 10
-1.654906554356301
 20
120.8252800207378
 30
0.0
  0
VERTEX
  5
739
  8
0
 62
     7
 10
-1.703394287903533
 20
120.6686797305438
 30
0.0
  0
VERTEX
  5
73A
  8
0
 62
     7
 10
-1.741707526655023
 20
120.5078795531186
 30
0.0
  0
VERTEX
  5
73B
  8
0
 62
     7
 10
-1.769474407531273
 20
120.343252259448
 30
0.0
  0
VERTEX
  5
73C
  8
0
 62
     7
 10
-1.786323067452785
 20
120.1751706205181
 30
0.0
  0
VERTEX
  5
73D
  8
0
 62
     7
 10
-1.791881643340061
 20
120.0040074073149
 30
0.0
  0
VERTEX
  5
73E
  8
0
 62
     7
 10
-1.785905697872795
 20
119.8328582577531
 30
0.0
  0
VERTEX
  5
73F
  8
0
 62
     7
 10
-1.768647216440986
 20
119.6648182044766
 30
0.0
  0
VERTEX
  5
740
  8
0
 62
     7
 10
-1.740478970030595
 20
119.5002591105648
 30
0.0
  0
VERTEX
  5
741
  8
0
 62
     7
 10
-1.701773729627587
 20
119.3395528390974
 30
0.0
  0
VERTEX
  5
742
  8
0
 62
     7
 10
-1.652904266217923
 20
119.1830712531537
 30
0.0
  0
VERTEX
  5
743
  8
0
 62
     7
 10
-1.594243350787565
 20
119.0311862158133
 30
0.0
  0
VERTEX
  5
744
  8
0
 62
     7
 10
-1.526163754322477
 20
118.8842695901557
 30
0.0
  0
VERTEX
  5
745
  8
0
 62
     7
 10
-1.44903824780862
 20
118.7426932392604
 30
0.0
  0
VERTEX
  5
746
  8
0
 62
     7
 10
-1.363239602231957
 20
118.6068290262068
 30
0.0
  0
VERTEX
  5
747
  8
0
 62
     7
 10
-1.269140588578451
 20
118.4770488140745
 30
0.0
  0
VERTEX
  5
748
  8
0
 62
     7
 10
-1.167113977834065
 20
118.3537244659429
 30
0.0
  0
VERTEX
  5
749
  8
0
 62
     7
 10
-1.05753254098476
 20
118.2372278448916
 30
0.0
  0
VERTEX
  5
74A
  8
0
 62
     7
 10
-0.9407690490164999
 20
118.1279308140001
 30
0.0
  0
VERTEX
  5
74B
  8
0
 62
     7
 10
-0.817196272915246
 20
118.0262052363479
 30
0.0
  0
VERTEX
  5
74C
  8
0
 62
     7
 10
-0.6871869836669616
 20
117.9324229750144
 30
0.0
  0
VERTEX
  5
74D
  8
0
 62
     7
 10
-0.551113952257609
 20
117.8469558930791
 30
0.0
  0
VERTEX
  5
74E
  8
0
 62
     7
 10
-0.4093499496731507
 20
117.7701758536216
 30
0.0
  0
VERTEX
  5
74F
  8
0
 62
     7
 10
-0.2622677468995491
 20
117.7024547197214
 30
0.0
  0
VERTEX
  5
750
  8
0
 62
     7
 10
-0.110240114922767
 20
117.6441643544579
 30
0.0
  0
VERTEX
  5
751
  8
0
 62
     7
 10
0.0463601752712333
 20
117.5956766209106
 30
0.0
  0
VERTEX
  5
752
  8
0
 62
     7
 10
0.2071603526964893
 20
117.5573633821591
 30
0.0
  0
VERTEX
  5
753
  8
0
 62
     7
 10
0.3717876463670384
 20
117.5295965012829
 30
0.0
  0
VERTEX
  5
754
  8
0
 62
     7
 10
0.5398692852969182
 20
117.5127478413614
 30
0.0
  0
VERTEX
  5
755
  8
0
 62
     7
 10
0.7110324985001661
 20
117.5071892654741
 30
0.0
  0
VERTEX
  5
756
  8
0
 62
     7
 10
0.8818916293799784
 20
117.5131458892584
 30
0.0
  0
VERTEX
  5
757
  8
0
 62
     7
 10
1.049657489145534
 20
117.5303485903716
 30
0.0
  0
VERTEX
  5
758
  8
0
 62
     7
 10
1.21395949569617
 20
117.5584267867129
 30
0.0
  0
VERTEX
  5
759
  8
0
 62
     7
 10
1.374427066931226
 20
117.5970098961817
 30
0.0
  0
VERTEX
  5
75A
  8
0
 62
     7
 10
1.530689620750038
 20
117.6457273366774
 30
0.0
  0
VERTEX
  5
75B
  8
0
 62
     7
 10
1.682376575051945
 20
117.7042085260992
 30
0.0
  0
VERTEX
  5
75C
  8
0
 62
     7
 10
1.829117347736284
 20
117.7720828823465
 30
0.0
  0
VERTEX
  5
75D
  8
0
 62
     7
 10
1.970541356702394
 20
117.8489798233188
 30
0.0
  0
VERTEX
  5
75E
  8
0
 62
     7
 10
2.106278019849612
 20
117.9345287669152
 30
0.0
  0
VERTEX
  5
75F
  8
0
 62
     7
 10
2.235956755077277
 20
118.0283591310351
 30
0.0
  0
VERTEX
  5
760
  8
0
 62
     7
 10
2.359206980284725
 20
118.1301003335779
 30
0.0
  0
VERTEX
  5
761
  8
0
 62
     7
 10
2.475658113371296
 20
118.2393817924429
 30
0.0
  0
VERTEX
  5
762
  8
0
 62
     7
 10
2.584939572236326
 20
118.3558329255295
 30
0.0
  0
VERTEX
  5
763
  8
0
 62
     7
 10
2.686680774779154
 20
118.4790831507369
 30
0.0
  0
VERTEX
  5
764
  8
0
 62
     7
 10
2.780511138899117
 20
118.6087618859646
 30
0.0
  0
VERTEX
  5
765
  8
0
 62
     7
 10
2.866060082495554
 20
118.7444985491118
 30
0.0
  0
VERTEX
  5
766
  8
0
 62
     7
 10
2.942957023467803
 20
118.885922558078
 30
0.0
  0
VERTEX
  5
767
  8
0
 62
     7
 10
3.0108313797152
 20
119.0326633307623
 30
0.0
  0
VERTEX
  5
768
  8
0
 62
     7
 10
3.069312569137085
 20
119.1843502850642
 30
0.0
  0
VERTEX
  5
769
  8
0
 62
     7
 10
3.118030009632796
 20
119.3406128388831
 30
0.0
  0
VERTEX
  5
76A
  8
0
 62
     7
 10
3.156613119101668
 20
119.5010804101182
 30
0.0
  0
VERTEX
  5
76B
  8
0
 62
     7
 10
3.184691315443041
 20
119.6653824166688
 30
0.0
  0
VERTEX
  5
76C
  8
0
 62
     7
 10
3.201894016556253
 20
119.8331482764344
 30
0.0
  0
VERTEX
  5
76D
  8
0
 62
     7
 10
3.207850640340642
 20
120.0040074073143
 30
0.0
  0
SEQEND
  5
C0D
  8
0
 62
     7
  0
ENDBLK
  5
3F1
  8
0
  0
BLOCK
  8
0
  2
BLOCK_73
 70
     0
 10
0.0
 20
0.0
 30
0.0
  3
BLOCK_73
  1

  0
POLYLINE
  5
3F7
  8
0
 62
     7
 66
     1
 10
0.0
 20
0.0
 30
0.0
  0
VERTEX
  5
76E
  8
0
 62
     7
 10
22.28325064034062
 20
177.2109034073145
 30
0.0
  0
VERTEX
  5
76F
  8
0
 62
     7
 10
22.27727469487336
 20
177.3820525568763
 30
0.0
  0
VERTEX
  5
770
  8
0
 62
     7
 10
22.26001621344155
 20
177.5500926101528
 30
0.0
  0
VERTEX
  5
771
  8
0
 62
     7
 10
22.23184796703115
 20
177.7146517040645
 30
0.0
  0
VERTEX
  5
772
  8
0
 62
     7
 10
22.19314272662815
 20
177.8753579755319
 30
0.0
  0
VERTEX
  5
773
  8
0
 62
     7
 10
22.14427326321848
 20
178.0318395614756
 30
0.0
  0
VERTEX
  5
774
  8
0
 62
     7
 10
22.08561234778813
 20
178.1837245988159
 30
0.0
  0
VERTEX
  5
775
  8
0
 62
     7
 10
22.01753275132304
 20
178.3306412244735
 30
0.0
  0
VERTEX
  5
776
  8
0
 62
     7
 10
21.94040724480918
 20
178.4722175753688
 30
0.0
  0
VERTEX
  5
777
  8
0
 62
     7
 10
21.85460859923252
 20
178.6080817884224
 30
0.0
  0
VERTEX
  5
778
  8
0
 62
     7
 10
21.76050958557901
 20
178.7378620005547
 30
0.0
  0
VERTEX
  5
779
  8
0
 62
     7
 10
21.65848297483462
 20
178.8611863486862
 30
0.0
  0
VERTEX
  5
77A
  8
0
 62
     7
 10
21.54890153798532
 20
178.9776829697375
 30
0.0
  0
VERTEX
  5
77B
  8
0
 62
     7
 10
21.43213804601706
 20
179.086980000629
 30
0.0
  0
VERTEX
  5
77C
  8
0
 62
     7
 10
21.30856526991581
 20
179.1887055782812
 30
0.0
  0
VERTEX
  5
77D
  8
0
 62
     7
 10
21.17855598066753
 20
179.2824878396147
 30
0.0
  0
VERTEX
  5
77E
  8
0
 62
     7
 10
21.04248294925817
 20
179.3679549215499
 30
0.0
  0
VERTEX
  5
77F
  8
0
 62
     7
 10
20.90071894667371
 20
179.4447349610074
 30
0.0
  0
VERTEX
  5
780
  8
0
 62
     7
 10
20.75363674390011
 20
179.5124560949077
 30
0.0
  0
VERTEX
  5
781
  8
0
 62
     7
 10
20.60160911192332
 20
179.5707464601712
 30
0.0
  0
VERTEX
  5
782
  8
0
 62
     7
 10
20.44500882172932
 20
179.6192341937184
 30
0.0
  0
VERTEX
  5
783
  8
0
 62
     7
 10
20.28420864430407
 20
179.6575474324699
 30
0.0
  0
VERTEX
  5
784
  8
0
 62
     7
 10
20.11958135063352
 20
179.6853143133462
 30
0.0
  0
VERTEX
  5
785
  8
0
 62
     7
 10
19.95149971170364
 20
179.7021629732677
 30
0.0
  0
VERTEX
  5
786
  8
0
 62
     7
 10
19.78033649850039
 20
179.707721549155
 30
0.0
  0
VERTEX
  5
787
  8
0
 62
     7
 10
19.60918734893859
 20
179.7017456036877
 30
0.0
  0
VERTEX
  5
788
  8
0
 62
     7
 10
19.44114729566208
 20
179.6844871222559
 30
0.0
  0
VERTEX
  5
789
  8
0
 62
     7
 10
19.27658820175035
 20
179.6563188758455
 30
0.0
  0
VERTEX
  5
78A
  8
0
 62
     7
 10
19.11588193028291
 20
179.6176136354425
 30
0.0
  0
VERTEX
  5
78B
  8
0
 62
     7
 10
18.95940034433925
 20
179.5687441720328
 30
0.0
  0
VERTEX
  5
78C
  8
0
 62
     7
 10
18.80751530699887
 20
179.5100832566025
 30
0.0
  0
VERTEX
  5
78D
  8
0
 62
     7
 10
18.66059868134126
 20
179.4420036601374
 30
0.0
  0
VERTEX
  5
78E
  8
0
 62
     7
 10
18.51902233044593
 20
179.3648781536235
 30
0.0
  0
VERTEX
  5
78F
  8
0
 62
     7
 10
18.38315811739237
 20
179.2790795080468
 30
0.0
  0
VERTEX
  5
790
  8
0
 62
     7
 10
18.25337790526008
 20
179.1849804943933
 30
0.0
  0
VERTEX
  5
791
  8
0
 62
     7
 10
18.13005355712856
 20
179.0829538836489
 30
0.0
  0
VERTEX
  5
792
  8
0
 62
     7
 10
18.01355693607729
 20
178.9733724467996
 30
0.0
  0
VERTEX
  5
793
  8
0
 62
     7
 10
17.9042599051858
 20
178.8566089548314
 30
0.0
  0
VERTEX
  5
794
  8
0
 62
     7
 10
17.80253432753356
 20
178.7330361787301
 30
0.0
  0
VERTEX
  5
795
  8
0
 62
     7
 10
17.70875206620008
 20
178.6030268894818
 30
0.0
  0
VERTEX
  5
796
  8
0
 62
     7
 10
17.62328498426485
 20
178.4669538580725
 30
0.0
  0
VERTEX
  5
797
  8
0
 62
     7
 10
17.54650494480737
 20
178.325189855488
 30
0.0
  0
VERTEX
  5
798
  8
0
 62
     7
 10
17.47878381090715
 20
178.1781076527144
 30
0.0
  0
VERTEX
  5
799
  8
0
 62
     7
 10
17.42049344564367
 20
178.0260800207376
 30
0.0
  0
VERTEX
  5
79A
  8
0
 62
     7
 10
17.37200571209644
 20
177.8694797305436
 30
0.0
  0
VERTEX
  5
79B
  8
0
 62
     7
 10
17.33369247334495
 20
177.7086795531183
 30
0.0
  0
VERTEX
  5
79C
  8
0
 62
     7
 10
17.3059255924687
 20
177.5440522594478
 30
0.0
  0
VERTEX
  5
79D
  8
0
 62
     7
 10
17.28907693254719
 20
177.3759706205179
 30
0.0
  0
VERTEX
  5
79E
  8
0
 62
     7
 10
17.28351835665991
 20
177.2048074073147
 30
0.0
  0
VERTEX
  5
79F
  8
0
 62
     7
 10
17.28949430212717
 20
177.0336582577529
 30
0.0
  0
VERTEX
  5
7A0
  8
0
 62
     7
 10
17.30675278355899
 20
176.8656182044765
 30
0.0
  0
VERTEX
  5
7A1
  8
0
 62
     7
 10
17.33492102996938
 20
176.7010591105648
 30
0.0
  0
VERTEX
  5
7A2
  8
0
 62
     7
 10
17.37362627037239
 20
176.5403528390974
 30
0.0
  0
VERTEX
  5
7A3
  8
0
 62
     7
 10
17.42249573378206
 20
176.3838712531537
 30
0.0
  0
VERTEX
  5
7A4
  8
0
 62
     7
 10
17.48115664921241
 20
176.2319862158133
 30
0.0
  0
VERTEX
  5
7A5
  8
0
 62
     7
 10
17.5492362456775
 20
176.0850695901558
 30
0.0
  0
VERTEX
  5
7A6
  8
0
 62
     7
 10
17.62636175219136
 20
175.9434932392605
 30
0.0
  0
VERTEX
  5
7A7
  8
0
 62
     7
 10
17.71216039776802
 20
175.8076290262069
 30
0.0
  0
VERTEX
  5
7A8
  8
0
 62
     7
 10
17.80625941142153
 20
175.6778488140746
 30
0.0
  0
VERTEX
  5
7A9
  8
0
 62
     7
 10
17.90828602216591
 20
175.5545244659431
 30
0.0
  0
VERTEX
  5
7AA
  8
0
 62
     7
 10
18.01786745901522
 20
175.4380278448918
 30
0.0
  0
VERTEX
  5
7AB
  8
0
 62
     7
 10
18.13463095098348
 20
175.3287308140003
 30
0.0
  0
VERTEX
  5
7AC
  8
0
 62
     7
 10
18.25820372708473
 20
175.227005236348
 30
0.0
  0
VERTEX
  5
7AD
  8
0
 62
     7
 10
18.38821301633302
 20
175.1332229750145
 30
0.0
  0
VERTEX
  5
7AE
  8
0
 62
     7
 10
18.52428604774237
 20
175.0477558930793
 30
0.0
  0
VERTEX
  5
7AF
  8
0
 62
     7
 10
18.66605005032682
 20
174.9709758536218
 30
0.0
  0
VERTEX
  5
7B0
  8
0
 62
     7
 10
18.81313225310043
 20
174.9032547197216
 30
0.0
  0
VERTEX
  5
7B1
  8
0
 62
     7
 10
18.96515988507721
 20
174.8449643544581
 30
0.0
  0
VERTEX
  5
7B2
  8
0
 62
     7
 10
19.12176017527121
 20
174.7964766209109
 30
0.0
  0
VERTEX
  5
7B3
  8
0
 62
     7
 10
19.28256035269646
 20
174.7581633821594
 30
0.0
  0
VERTEX
  5
7B4
  8
0
 62
     7
 10
19.44718764636702
 20
174.7303965012831
 30
0.0
  0
VERTEX
  5
7B5
  8
0
 62
     7
 10
19.6152692852969
 20
174.7135478413616
 30
0.0
  0
VERTEX
  5
7B6
  8
0
 62
     7
 10
19.78643249850014
 20
174.7079892654743
 30
0.0
  0
VERTEX
  5
7B7
  8
0
 62
     7
 10
19.95729162937996
 20
174.7139458892586
 30
0.0
  0
VERTEX
  5
7B8
  8
0
 62
     7
 10
20.12505748914552
 20
174.7311485903718
 30
0.0
  0
VERTEX
  5
7B9
  8
0
 62
     7
 10
20.28935949569616
 20
174.7592267867132
 30
0.0
  0
VERTEX
  5
7BA
  8
0
 62
     7
 10
20.44982706693123
 20
174.797809896182
 30
0.0
  0
VERTEX
  5
7BB
  8
0
 62
     7
 10
20.60608962075005
 20
174.8465273366777
 30
0.0
  0
VERTEX
  5
7BC
  8
0
 62
     7
 10
20.75777657505197
 20
174.9050085260995
 30
0.0
  0
VERTEX
  5
7BD
  8
0
 62
     7
 10
20.90451734773632
 20
174.9728828823469
 30
0.0
  0
VERTEX
  5
7BE
  8
0
 62
     7
 10
21.04594135670245
 20
175.0497798233191
 30
0.0
  0
VERTEX
  5
7BF
  8
0
 62
     7
 10
21.18167801984968
 20
175.1353287669155
 30
0.0
  0
VERTEX
  5
7C0
  8
0
 62
     7
 10
21.31135675507736
 20
175.2291591310354
 30
0.0
  0
VERTEX
  5
7C1
  8
0
 62
     7
 10
21.43460698028482
 20
175.3309003335782
 30
0.0
  0
VERTEX
  5
7C2
  8
0
 62
     7
 10
21.5510581133714
 20
175.4401817924432
 30
0.0
  0
VERTEX
  5
7C3
  8
0
 62
     7
 10
21.66033957223643
 20
175.5566329255298
 30
0.0
  0
VERTEX
  5
7C4
  8
0
 62
     7
 10
21.76208077477927
 20
175.6798831507372
 30
0.0
  0
VERTEX
  5
7C5
  8
0
 62
     7
 10
21.85591113889924
 20
175.8095618859649
 30
0.0
  0
VERTEX
  5
7C6
  8
0
 62
     7
 10
21.94146008249568
 20
175.9452985491121
 30
0.0
  0
VERTEX
  5
7C7
  8
0
 62
     7
 10
22.01835702346792
 20
176.0867225580782
 30
0.0
  0
VERTEX
  5
7C8
  8
0
 62
     7
 10
22.08623137971531
 20
176.2334633307625
 30
0.0
  0
VERTEX
  5
7C9
  8
0
 62
     7
 10
22.14471256913719
 20
176.3851502850644
 30
0.0
  0
VERTEX
  5
7CA
  8
0
 62
     7
 10
22.19343000963289
 20
176.5414128388832
 30
0.0
  0
VERTEX
  5
7CB
  8
0
 62
     7
 10
22.23201311910174
 20
176.7018804101183
 30
0.0
  0
VERTEX
  5
7CC
  8
0
 62
     7
 10
22.26009131544308
 20
176.8661824166689
 30
0.0
  0
VERTEX
  5
7CD
  8
0
 62
     7
 10
22.27729401655627
 20
177.0339482764345
 30
0.0
  0
VERTEX
  5
7CE
  8
0
 62
     7
 10
22.28325064034062
 20
177.2048074073144
 30
0.0
  0
SEQEND
  5
C0E
  8
0
 62
     7
  0
ENDBLK
  5
3F6
  8
0
  0
BLOCK
  8
0
  2
BLOCK_74
 70
     0
 10
0.0
 20
0.0
 30
0.0
  3
BLOCK_74
  1

  0
POLYLINE
  5
3FC
  8
0
 62
     7
 66
     1
 10
0.0
 20
0.0
 30
0.0
  0
VERTEX
  5
7CF
  8
0
 62
     7
 10
193.8320566403409
 20
177.1855034073144
 30
0.0
  0
VERTEX
  5
7D0
  8
0
 62
     7
 10
193.8260806948736
 20
177.3566525568762
 30
0.0
  0
VERTEX
  5
7D1
  8
0
 62
     7
 10
193.8088222134418
 20
177.5246926101528
 30
0.0
  0
VERTEX
  5
7D2
  8
0
 62
     7
 10
193.7806539670314
 20
177.6892517040644
 30
0.0
  0
VERTEX
  5
7D3
  8
0
 62
     7
 10
193.7419487266284
 20
177.8499579755319
 30
0.0
  0
VERTEX
  5
7D4
  8
0
 62
     7
 10
193.6930792632187
 20
178.0064395614755
 30
0.0
  0
VERTEX
  5
7D5
  8
0
 62
     7
 10
193.6344183477884
 20
178.1583245988159
 30
0.0
  0
VERTEX
  5
7D6
  8
0
 62
     7
 10
193.5663387513233
 20
178.3052412244735
 30
0.0
  0
VERTEX
  5
7D7
  8
0
 62
     7
 10
193.4892132448094
 20
178.4468175753688
 30
0.0
  0
VERTEX
  5
7D8
  8
0
 62
     7
 10
193.4034145992327
 20
178.5826817884224
 30
0.0
  0
VERTEX
  5
7D9
  8
0
 62
     7
 10
193.3093155855792
 20
178.7124620005547
 30
0.0
  0
VERTEX
  5
7DA
  8
0
 62
     7
 10
193.2072889748348
 20
178.8357863486862
 30
0.0
  0
VERTEX
  5
7DB
  8
0
 62
     7
 10
193.0977075379854
 20
178.9522829697375
 30
0.0
  0
VERTEX
  5
7DC
  8
0
 62
     7
 10
192.9809440460172
 20
179.061580000629
 30
0.0
  0
VERTEX
  5
7DD
  8
0
 62
     7
 10
192.8573712699159
 20
179.1633055782812
 30
0.0
  0
VERTEX
  5
7DE
  8
0
 62
     7
 10
192.7273619806676
 20
179.2570878396147
 30
0.0
  0
VERTEX
  5
7DF
  8
0
 62
     7
 10
192.5912889492582
 20
179.3425549215499
 30
0.0
  0
VERTEX
  5
7E0
  8
0
 62
     7
 10
192.4495249466738
 20
179.4193349610074
 30
0.0
  0
VERTEX
  5
7E1
  8
0
 62
     7
 10
192.3024427439001
 20
179.4870560949076
 30
0.0
  0
VERTEX
  5
7E2
  8
0
 62
     7
 10
192.1504151119233
 20
179.5453464601711
 30
0.0
  0
VERTEX
  5
7E3
  8
0
 62
     7
 10
191.9938148217293
 20
179.5938341937184
 30
0.0
  0
VERTEX
  5
7E4
  8
0
 62
     7
 10
191.833014644304
 20
179.6321474324698
 30
0.0
  0
VERTEX
  5
7E5
  8
0
 62
     7
 10
191.6683873506335
 20
179.6599143133461
 30
0.0
  0
VERTEX
  5
7E6
  8
0
 62
     7
 10
191.5003057117036
 20
179.6767629732676
 30
0.0
  0
VERTEX
  5
7E7
  8
0
 62
     7
 10
191.3291424985003
 20
179.6823215491549
 30
0.0
  0
VERTEX
  5
7E8
  8
0
 62
     7
 10
191.1579933489385
 20
179.6763456036877
 30
0.0
  0
VERTEX
  5
7E9
  8
0
 62
     7
 10
190.989953295662
 20
179.6590871222558
 30
0.0
  0
VERTEX
  5
7EA
  8
0
 62
     7
 10
190.8253942017503
 20
179.6309188758454
 30
0.0
  0
VERTEX
  5
7EB
  8
0
 62
     7
 10
190.6646879302828
 20
179.5922136354424
 30
0.0
  0
VERTEX
  5
7EC
  8
0
 62
     7
 10
190.5082063443391
 20
179.5433441720327
 30
0.0
  0
VERTEX
  5
7ED
  8
0
 62
     7
 10
190.3563213069987
 20
179.4846832566024
 30
0.0
  0
VERTEX
  5
7EE
  8
0
 62
     7
 10
190.2094046813411
 20
179.4166036601373
 30
0.0
  0
VERTEX
  5
7EF
  8
0
 62
     7
 10
190.0678283304458
 20
179.3394781536235
 30
0.0
  0
VERTEX
  5
7F0
  8
0
 62
     7
 10
189.9319641173922
 20
179.2536795080468
 30
0.0
  0
VERTEX
  5
7F1
  8
0
 62
     7
 10
189.8021839052599
 20
179.1595804943933
 30
0.0
  0
VERTEX
  5
7F2
  8
0
 62
     7
 10
189.6788595571284
 20
179.0575538836489
 30
0.0
  0
VERTEX
  5
7F3
  8
0
 62
     7
 10
189.5623629360771
 20
178.9479724467996
 30
0.0
  0
VERTEX
  5
7F4
  8
0
 62
     7
 10
189.4530659051855
 20
178.8312089548313
 30
0.0
  0
VERTEX
  5
7F5
  8
0
 62
     7
 10
189.3513403275333
 20
178.70763617873
 30
0.0
  0
VERTEX
  5
7F6
  8
0
 62
     7
 10
189.2575580661998
 20
178.5776268894818
 30
0.0
  0
VERTEX
  5
7F7
  8
0
 62
     7
 10
189.1720909842646
 20
178.4415538580724
 30
0.0
  0
VERTEX
  5
7F8
  8
0
 62
     7
 10
189.0953109448071
 20
178.2997898554879
 30
0.0
  0
VERTEX
  5
7F9
  8
0
 62
     7
 10
189.0275898109068
 20
178.1527076527143
 30
0.0
  0
VERTEX
  5
7FA
  8
0
 62
     7
 10
188.9692994456433
 20
178.0006800207375
 30
0.0
  0
VERTEX
  5
7FB
  8
0
 62
     7
 10
188.9208117120961
 20
177.8440797305435
 30
0.0
  0
VERTEX
  5
7FC
  8
0
 62
     7
 10
188.8824984733446
 20
177.6832795531183
 30
0.0
  0
VERTEX
  5
7FD
  8
0
 62
     7
 10
188.8547315924683
 20
177.5186522594477
 30
0.0
  0
VERTEX
  5
7FE
  8
0
 62
     7
 10
188.8378829325468
 20
177.3505706205179
 30
0.0
  0
VERTEX
  5
7FF
  8
0
 62
     7
 10
188.8323243566595
 20
177.1794074073146
 30
0.0
  0
VERTEX
  5
800
  8
0
 62
     7
 10
188.8383003021268
 20
177.0082582577528
 30
0.0
  0
VERTEX
  5
801
  8
0
 62
     7
 10
188.8555587835586
 20
176.8402182044764
 30
0.0
  0
VERTEX
  5
802
  8
0
 62
     7
 10
188.883727029969
 20
176.6756591105647
 30
0.0
  0
VERTEX
  5
803
  8
0
 62
     7
 10
188.922432270372
 20
176.5149528390972
 30
0.0
  0
VERTEX
  5
804
  8
0
 62
     7
 10
188.9713017337817
 20
176.3584712531536
 30
0.0
  0
VERTEX
  5
805
  8
0
 62
     7
 10
189.0299626492121
 20
176.2065862158132
 30
0.0
  0
VERTEX
  5
806
  8
0
 62
     7
 10
189.0980422456772
 20
176.0596695901556
 30
0.0
  0
VERTEX
  5
807
  8
0
 62
     7
 10
189.175167752191
 20
175.9180932392603
 30
0.0
  0
VERTEX
  5
808
  8
0
 62
     7
 10
189.2609663977677
 20
175.7822290262067
 30
0.0
  0
VERTEX
  5
809
  8
0
 62
     7
 10
189.3550654114213
 20
175.6524488140744
 30
0.0
  0
VERTEX
  5
80A
  8
0
 62
     7
 10
189.4570920221657
 20
175.5291244659429
 30
0.0
  0
VERTEX
  5
80B
  8
0
 62
     7
 10
189.566673459015
 20
175.4126278448916
 30
0.0
  0
VERTEX
  5
80C
  8
0
 62
     7
 10
189.6834369509833
 20
175.3033308140001
 30
0.0
  0
VERTEX
  5
80D
  8
0
 62
     7
 10
189.8070097270845
 20
175.2016052363479
 30
0.0
  0
VERTEX
  5
80E
  8
0
 62
     7
 10
189.9370190163328
 20
175.1078229750144
 30
0.0
  0
VERTEX
  5
80F
  8
0
 62
     7
 10
190.0730920477423
 20
175.0223558930792
 30
0.0
  0
VERTEX
  5
810
  8
0
 62
     7
 10
190.2148560503267
 20
174.9455758536216
 30
0.0
  0
VERTEX
  5
811
  8
0
 62
     7
 10
190.3619382531003
 20
174.8778547197214
 30
0.0
  0
VERTEX
  5
812
  8
0
 62
     7
 10
190.5139658850771
 20
174.8195643544579
 30
0.0
  0
VERTEX
  5
813
  8
0
 62
     7
 10
190.6705661752711
 20
174.7710766209107
 30
0.0
  0
VERTEX
  5
814
  8
0
 62
     7
 10
190.8313663526964
 20
174.7327633821592
 30
0.0
  0
VERTEX
  5
815
  8
0
 62
     7
 10
190.995993646367
 20
174.7049965012829
 30
0.0
  0
VERTEX
  5
816
  8
0
 62
     7
 10
191.1640752852969
 20
174.6881478413614
 30
0.0
  0
VERTEX
  5
817
  8
0
 62
     7
 10
191.3352384985001
 20
174.6825892654741
 30
0.0
  0
VERTEX
  5
818
  8
0
 62
     7
 10
191.50609762938
 20
174.6885458892585
 30
0.0
  0
VERTEX
  5
819
  8
0
 62
     7
 10
191.6738634891456
 20
174.7057485903716
 30
0.0
  0
VERTEX
  5
81A
  8
0
 62
     7
 10
191.8381654956962
 20
174.733826786713
 30
0.0
  0
VERTEX
  5
81B
  8
0
 62
     7
 10
191.9986330669313
 20
174.7724098961818
 30
0.0
  0
VERTEX
  5
81C
  8
0
 62
     7
 10
192.1548956207502
 20
174.8211273366775
 30
0.0
  0
VERTEX
  5
81D
  8
0
 62
     7
 10
192.3065825750521
 20
174.8796085260994
 30
0.0
  0
VERTEX
  5
81E
  8
0
 62
     7
 10
192.4533233477364
 20
174.9474828823468
 30
0.0
  0
VERTEX
  5
81F
  8
0
 62
     7
 10
192.5947473567026
 20
175.024379823319
 30
0.0
  0
VERTEX
  5
820
  8
0
 62
     7
 10
192.7304840198498
 20
175.1099287669154
 30
0.0
  0
VERTEX
  5
821
  8
0
 62
     7
 10
192.8601627550775
 20
175.2037591310354
 30
0.0
  0
VERTEX
  5
822
  8
0
 62
     7
 10
192.983412980285
 20
175.3055003335782
 30
0.0
  0
VERTEX
  5
823
  8
0
 62
     7
 10
193.0998641133715
 20
175.4147817924432
 30
0.0
  0
VERTEX
  5
824
  8
0
 62
     7
 10
193.2091455722366
 20
175.5312329255297
 30
0.0
  0
VERTEX
  5
825
  8
0
 62
     7
 10
193.3108867747794
 20
175.6544831507372
 30
0.0
  0
VERTEX
  5
826
  8
0
 62
     7
 10
193.4047171388994
 20
175.7841618859649
 30
0.0
  0
VERTEX
  5
827
  8
0
 62
     7
 10
193.4902660824958
 20
175.9198985491121
 30
0.0
  0
VERTEX
  5
828
  8
0
 62
     7
 10
193.5671630234681
 20
176.0613225580782
 30
0.0
  0
VERTEX
  5
829
  8
0
 62
     7
 10
193.6350373797155
 20
176.2080633307625
 30
0.0
  0
VERTEX
  5
82A
  8
0
 62
     7
 10
193.6935185691374
 20
176.3597502850644
 30
0.0
  0
VERTEX
  5
82B
  8
0
 62
     7
 10
193.7422360096331
 20
176.5160128388833
 30
0.0
  0
VERTEX
  5
82C
  8
0
 62
     7
 10
193.7808191191019
 20
176.6764804101183
 30
0.0
  0
VERTEX
  5
82D
  8
0
 62
     7
 10
193.8088973154433
 20
176.8407824166689
 30
0.0
  0
VERTEX
  5
82E
  8
0
 62
     7
 10
193.8261000165565
 20
177.0085482764345
 30
0.0
  0
VERTEX
  5
82F
  8
0
 62
     7
 10
193.8320566403409
 20
177.1794074073143
 30
0.0
  0
SEQEND
  5
C0F
  8
0
 62
     7
  0
ENDBLK
  5
3FB
  8
0
  0
BLOCK
  8
0
  2
BLOCK_75
 70
     0
 10
0.0
 20
0.0
 30
0.0
  3
BLOCK_75
  1

  0
POLYLINE
  5
401
  8
0
 62
     7
 66
     1
 10
0.0
 20
0.0
 30
0.0
  0
VERTEX
  5
830
  8
0
 62
     7
 10
117.4956586403407
 20
158.1863034073144
 30
0.0
  0
VERTEX
  5
831
  8
0
 62
     7
 10
117.4896826948734
 20
158.3574525568762
 30
0.0
  0
VERTEX
  5
832
  8
0
 62
     7
 10
117.4724242134416
 20
158.5254926101527
 30
0.0
  0
VERTEX
  5
833
  8
0
 62
     7
 10
117.4442559670312
 20
158.6900517040644
 30
0.0
  0
VERTEX
  5
834
  8
0
 62
     7
 10
117.4055507266282
 20
158.8507579755319
 30
0.0
  0
VERTEX
  5
835
  8
0
 62
     7
 10
117.3566812632185
 20
159.0072395614756
 30
0.0
  0
VERTEX
  5
836
  8
0
 62
     7
 10
117.2980203477882
 20
159.1591245988159
 30
0.0
  0
VERTEX
  5
837
  8
0
 62
     7
 10
117.229940751323
 20
159.3060412244735
 30
0.0
  0
VERTEX
  5
838
  8
0
 62
     7
 10
117.1528152448092
 20
159.4476175753689
 30
0.0
  0
VERTEX
  5
839
  8
0
 62
     7
 10
117.0670165992325
 20
159.5834817884224
 30
0.0
  0
VERTEX
  5
83A
  8
0
 62
     7
 10
116.972917585579
 20
159.7132620005547
 30
0.0
  0
VERTEX
  5
83B
  8
0
 62
     7
 10
116.8708909748346
 20
159.8365863486863
 30
0.0
  0
VERTEX
  5
83C
  8
0
 62
     7
 10
116.7613095379853
 20
159.9530829697375
 30
0.0
  0
VERTEX
  5
83D
  8
0
 62
     7
 10
116.644546046017
 20
160.062380000629
 30
0.0
  0
VERTEX
  5
83E
  8
0
 62
     7
 10
116.5209732699158
 20
160.1641055782812
 30
0.0
  0
VERTEX
  5
83F
  8
0
 62
     7
 10
116.3909639806675
 20
160.2578878396147
 30
0.0
  0
VERTEX
  5
840
  8
0
 62
     7
 10
116.2548909492581
 20
160.3433549215499
 30
0.0
  0
VERTEX
  5
841
  8
0
 62
     7
 10
116.1131269466737
 20
160.4201349610074
 30
0.0
  0
VERTEX
  5
842
  8
0
 62
     7
 10
115.9660447439001
 20
160.4878560949077
 30
0.0
  0
VERTEX
  5
843
  8
0
 62
     7
 10
115.8140171119234
 20
160.5461464601711
 30
0.0
  0
VERTEX
  5
844
  8
0
 62
     7
 10
115.6574168217294
 20
160.5946341937184
 30
0.0
  0
VERTEX
  5
845
  8
0
 62
     7
 10
115.4966166443042
 20
160.6329474324698
 30
0.0
  0
VERTEX
  5
846
  8
0
 62
     7
 10
115.3319893506337
 20
160.6607143133461
 30
0.0
  0
VERTEX
  5
847
  8
0
 62
     7
 10
115.1639077117039
 20
160.6775629732676
 30
0.0
  0
VERTEX
  5
848
  8
0
 62
     7
 10
114.9927444985007
 20
160.6831215491549
 30
0.0
  0
VERTEX
  5
849
  8
0
 62
     7
 10
114.8215953489389
 20
160.6771456036877
 30
0.0
  0
VERTEX
  5
84A
  8
0
 62
     7
 10
114.6535552956624
 20
160.6598871222558
 30
0.0
  0
VERTEX
  5
84B
  8
0
 62
     7
 10
114.4889962017507
 20
160.6317188758455
 30
0.0
  0
VERTEX
  5
84C
  8
0
 62
     7
 10
114.3282899302832
 20
160.5930136354424
 30
0.0
  0
VERTEX
  5
84D
  8
0
 62
     7
 10
114.1718083443395
 20
160.5441441720327
 30
0.0
  0
VERTEX
  5
84E
  8
0
 62
     7
 10
114.0199233069991
 20
160.4854832566024
 30
0.0
  0
VERTEX
  5
84F
  8
0
 62
     7
 10
113.8730066813415
 20
160.4174036601373
 30
0.0
  0
VERTEX
  5
850
  8
0
 62
     7
 10
113.7314303304462
 20
160.3402781536234
 30
0.0
  0
VERTEX
  5
851
  8
0
 62
     7
 10
113.5955661173926
 20
160.2544795080468
 30
0.0
  0
VERTEX
  5
852
  8
0
 62
     7
 10
113.4657859052603
 20
160.1603804943933
 30
0.0
  0
VERTEX
  5
853
  8
0
 62
     7
 10
113.3424615571288
 20
160.0583538836489
 30
0.0
  0
VERTEX
  5
854
  8
0
 62
     7
 10
113.2259649360775
 20
159.9487724467995
 30
0.0
  0
VERTEX
  5
855
  8
0
 62
     7
 10
113.1166679051859
 20
159.8320089548313
 30
0.0
  0
VERTEX
  5
856
  8
0
 62
     7
 10
113.0149423275337
 20
159.70843617873
 30
0.0
  0
VERTEX
  5
857
  8
0
 62
     7
 10
112.9211600662002
 20
159.5784268894817
 30
0.0
  0
VERTEX
  5
858
  8
0
 62
     7
 10
112.835692984265
 20
159.4423538580724
 30
0.0
  0
VERTEX
  5
859
  8
0
 62
     7
 10
112.7589129448075
 20
159.3005898554879
 30
0.0
  0
VERTEX
  5
85A
  8
0
 62
     7
 10
112.6911918109072
 20
159.1535076527143
 30
0.0
  0
VERTEX
  5
85B
  8
0
 62
     7
 10
112.6329014456437
 20
159.0014800207375
 30
0.0
  0
VERTEX
  5
85C
  8
0
 62
     7
 10
112.5844137120965
 20
158.8448797305435
 30
0.0
  0
VERTEX
  5
85D
  8
0
 62
     7
 10
112.546100473345
 20
158.6840795531182
 30
0.0
  0
VERTEX
  5
85E
  8
0
 62
     7
 10
112.5183335924687
 20
158.5194522594477
 30
0.0
  0
VERTEX
  5
85F
  8
0
 62
     7
 10
112.5014849325472
 20
158.3513706205177
 30
0.0
  0
VERTEX
  5
860
  8
0
 62
     7
 10
112.4959263566599
 20
158.1802074073145
 30
0.0
  0
VERTEX
  5
861
  8
0
 62
     7
 10
112.5019023021271
 20
158.0090582577527
 30
0.0
  0
VERTEX
  5
862
  8
0
 62
     7
 10
112.519160783559
 20
157.8410182044763
 30
0.0
  0
VERTEX
  5
863
  8
0
 62
     7
 10
112.5473290299694
 20
157.6764591105646
 30
0.0
  0
VERTEX
  5
864
  8
0
 62
     7
 10
112.5860342703724
 20
157.5157528390972
 30
0.0
  0
VERTEX
  5
865
  8
0
 62
     7
 10
112.634903733782
 20
157.3592712531536
 30
0.0
  0
VERTEX
  5
866
  8
0
 62
     7
 10
112.6935646492124
 20
157.2073862158132
 30
0.0
  0
VERTEX
  5
867
  8
0
 62
     7
 10
112.7616442456774
 20
157.0604695901556
 30
0.0
  0
VERTEX
  5
868
  8
0
 62
     7
 10
112.8387697521913
 20
156.9188932392603
 30
0.0
  0
VERTEX
  5
869
  8
0
 62
     7
 10
112.9245683977679
 20
156.7830290262067
 30
0.0
  0
VERTEX
  5
86A
  8
0
 62
     7
 10
113.0186674114214
 20
156.6532488140745
 30
0.0
  0
VERTEX
  5
86B
  8
0
 62
     7
 10
113.1206940221658
 20
156.5299244659429
 30
0.0
  0
VERTEX
  5
86C
  8
0
 62
     7
 10
113.2302754590151
 20
156.4134278448917
 30
0.0
  0
VERTEX
  5
86D
  8
0
 62
     7
 10
113.3470389509833
 20
156.3041308140002
 30
0.0
  0
VERTEX
  5
86E
  8
0
 62
     7
 10
113.4706117270846
 20
156.2024052363479
 30
0.0
  0
VERTEX
  5
86F
  8
0
 62
     7
 10
113.6006210163328
 20
156.1086229750144
 30
0.0
  0
VERTEX
  5
870
  8
0
 62
     7
 10
113.7366940477422
 20
156.0231558930792
 30
0.0
  0
VERTEX
  5
871
  8
0
 62
     7
 10
113.8784580503266
 20
155.9463758536217
 30
0.0
  0
VERTEX
  5
872
  8
0
 62
     7
 10
114.0255402531002
 20
155.8786547197215
 30
0.0
  0
VERTEX
  5
873
  8
0
 62
     7
 10
114.177567885077
 20
155.820364354458
 30
0.0
  0
VERTEX
  5
874
  8
0
 62
     7
 10
114.334168175271
 20
155.7718766209107
 30
0.0
  0
VERTEX
  5
875
  8
0
 62
     7
 10
114.4949683526962
 20
155.7335633821592
 30
0.0
  0
VERTEX
  5
876
  8
0
 62
     7
 10
114.6595956463668
 20
155.705796501283
 30
0.0
  0
VERTEX
  5
877
  8
0
 62
     7
 10
114.8276772852966
 20
155.6889478413615
 30
0.0
  0
VERTEX
  5
878
  8
0
 62
     7
 10
114.9988404984999
 20
155.6833892654742
 30
0.0
  0
VERTEX
  5
879
  8
0
 62
     7
 10
115.1696996293797
 20
155.6893458892586
 30
0.0
  0
VERTEX
  5
87A
  8
0
 62
     7
 10
115.3374654891453
 20
155.7065485903717
 30
0.0
  0
VERTEX
  5
87B
  8
0
 62
     7
 10
115.501767495696
 20
155.7346267867131
 30
0.0
  0
VERTEX
  5
87C
  8
0
 62
     7
 10
115.6622350669311
 20
155.7732098961819
 30
0.0
  0
VERTEX
  5
87D
  8
0
 62
     7
 10
115.8184976207499
 20
155.8219273366776
 30
0.0
  0
VERTEX
  5
87E
  8
0
 62
     7
 10
115.9701845750518
 20
155.8804085260994
 30
0.0
  0
VERTEX
  5
87F
  8
0
 62
     7
 10
116.1169253477362
 20
155.9482828823468
 30
0.0
  0
VERTEX
  5
880
  8
0
 62
     7
 10
116.2583493567023
 20
156.025179823319
 30
0.0
  0
VERTEX
  5
881
  8
0
 62
     7
 10
116.3940860198495
 20
156.1107287669155
 30
0.0
  0
VERTEX
  5
882
  8
0
 62
     7
 10
116.5237647550772
 20
156.2045591310354
 30
0.0
  0
VERTEX
  5
883
  8
0
 62
     7
 10
116.6470149802847
 20
156.3063003335782
 30
0.0
  0
VERTEX
  5
884
  8
0
 62
     7
 10
116.7634661133713
 20
156.4155817924432
 30
0.0
  0
VERTEX
  5
885
  8
0
 62
     7
 10
116.8727475722363
 20
156.5320329255298
 30
0.0
  0
VERTEX
  5
886
  8
0
 62
     7
 10
116.9744887747791
 20
156.6552831507372
 30
0.0
  0
VERTEX
  5
887
  8
0
 62
     7
 10
117.0683191388991
 20
156.7849618859649
 30
0.0
  0
VERTEX
  5
888
  8
0
 62
     7
 10
117.1538680824955
 20
156.9206985491121
 30
0.0
  0
VERTEX
  5
889
  8
0
 62
     7
 10
117.2307650234678
 20
157.0621225580782
 30
0.0
  0
VERTEX
  5
88A
  8
0
 62
     7
 10
117.2986393797152
 20
157.2088633307625
 30
0.0
  0
VERTEX
  5
88B
  8
0
 62
     7
 10
117.3571205691371
 20
157.3605502850644
 30
0.0
  0
VERTEX
  5
88C
  8
0
 62
     7
 10
117.4058380096328
 20
157.5168128388832
 30
0.0
  0
VERTEX
  5
88D
  8
0
 62
     7
 10
117.4444211191017
 20
157.6772804101183
 30
0.0
  0
VERTEX
  5
88E
  8
0
 62
     7
 10
117.4724993154431
 20
157.8415824166689
 30
0.0
  0
VERTEX
  5
88F
  8
0
 62
     7
 10
117.4897020165563
 20
158.0093482764345
 30
0.0
  0
VERTEX
  5
890
  8
0
 62
     7
 10
117.4956586403407
 20
158.1802074073143
 30
0.0
  0
SEQEND
  5
C10
  8
0
 62
     7
  0
ENDBLK
  5
400
  8
0
  0
BLOCK
  8
0
  2
BLOCK_76
 70
     0
 10
0.0
 20
0.0
 30
0.0
  3
BLOCK_76
  1

  0
POLYLINE
  5
406
  8
0
 62
     7
 66
     1
 10
0.0
 20
0.0
 30
0.0
  0
VERTEX
  5
891
  8
0
 62
     7
 10
155.758726640341
 20
110.7149734073146
 30
0.0
  0
VERTEX
  5
892
  8
0
 62
     7
 10
155.7527506948737
 20
110.8861225568764
 30
0.0
  0
VERTEX
  5
893
  8
0
 62
     7
 10
155.7354922134419
 20
111.0541626101529
 30
0.0
  0
VERTEX
  5
894
  8
0
 62
     7
 10
155.7073239670315
 20
111.2187217040646
 30
0.0
  0
VERTEX
  5
895
  8
0
 62
     7
 10
155.6686187266285
 20
111.3794279755321
 30
0.0
  0
VERTEX
  5
896
  8
0
 62
     7
 10
155.6197492632188
 20
111.5359095614757
 30
0.0
  0
VERTEX
  5
897
  8
0
 62
     7
 10
155.5610883477885
 20
111.6877945988161
 30
0.0
  0
VERTEX
  5
898
  8
0
 62
     7
 10
155.4930087513233
 20
111.8347112244737
 30
0.0
  0
VERTEX
  5
899
  8
0
 62
     7
 10
155.4158832448095
 20
111.976287575369
 30
0.0
  0
VERTEX
  5
89A
  8
0
 62
     7
 10
155.3300845992328
 20
112.1121517884225
 30
0.0
  0
VERTEX
  5
89B
  8
0
 62
     7
 10
155.2359855855792
 20
112.2419320005548
 30
0.0
  0
VERTEX
  5
89C
  8
0
 62
     7
 10
155.1339589748348
 20
112.3652563486863
 30
0.0
  0
VERTEX
  5
89D
  8
0
 62
     7
 10
155.0243775379855
 20
112.4817529697375
 30
0.0
  0
VERTEX
  5
89E
  8
0
 62
     7
 10
154.9076140460172
 20
112.591050000629
 30
0.0
  0
VERTEX
  5
89F
  8
0
 62
     7
 10
154.784041269916
 20
112.6927755782812
 30
0.0
  0
VERTEX
  5
8A0
  8
0
 62
     7
 10
154.6540319806676
 20
112.7865578396147
 30
0.0
  0
VERTEX
  5
8A1
  8
0
 62
     7
 10
154.5179589492583
 20
112.8720249215499
 30
0.0
  0
VERTEX
  5
8A2
  8
0
 62
     7
 10
154.3761949466738
 20
112.9488049610073
 30
0.0
  0
VERTEX
  5
8A3
  8
0
 62
     7
 10
154.2291127439002
 20
113.0165260949075
 30
0.0
  0
VERTEX
  5
8A4
  8
0
 62
     7
 10
154.0770851119234
 20
113.074816460171
 30
0.0
  0
VERTEX
  5
8A5
  8
0
 62
     7
 10
153.9204848217294
 20
113.1233041937182
 30
0.0
  0
VERTEX
  5
8A6
  8
0
 62
     7
 10
153.7596846443041
 20
113.1616174324697
 30
0.0
  0
VERTEX
  5
8A7
  8
0
 62
     7
 10
153.5950573506336
 20
113.1893843133459
 30
0.0
  0
VERTEX
  5
8A8
  8
0
 62
     7
 10
153.4269757117036
 20
113.2062329732674
 30
0.0
  0
VERTEX
  5
8A9
  8
0
 62
     7
 10
153.2558124985004
 20
113.2117915491547
 30
0.0
  0
VERTEX
  5
8AA
  8
0
 62
     7
 10
153.0846633489386
 20
113.2058156036875
 30
0.0
  0
VERTEX
  5
8AB
  8
0
 62
     7
 10
152.9166232956621
 20
113.1885571222557
 30
0.0
  0
VERTEX
  5
8AC
  8
0
 62
     7
 10
152.7520642017504
 20
113.1603888758453
 30
0.0
  0
VERTEX
  5
8AD
  8
0
 62
     7
 10
152.5913579302829
 20
113.1216836354423
 30
0.0
  0
VERTEX
  5
8AE
  8
0
 62
     7
 10
152.4348763443392
 20
113.0728141720326
 30
0.0
  0
VERTEX
  5
8AF
  8
0
 62
     7
 10
152.2829913069988
 20
113.0141532566023
 30
0.0
  0
VERTEX
  5
8B0
  8
0
 62
     7
 10
152.1360746813412
 20
112.9460736601372
 30
0.0
  0
VERTEX
  5
8B1
  8
0
 62
     7
 10
151.9944983304459
 20
112.8689481536234
 30
0.0
  0
VERTEX
  5
8B2
  8
0
 62
     7
 10
151.8586341173923
 20
112.7831495080467
 30
0.0
  0
VERTEX
  5
8B3
  8
0
 62
     7
 10
151.72885390526
 20
112.6890504943933
 30
0.0
  0
VERTEX
  5
8B4
  8
0
 62
     7
 10
151.6055295571284
 20
112.5870238836489
 30
0.0
  0
VERTEX
  5
8B5
  8
0
 62
     7
 10
151.4890329360771
 20
112.4774424467996
 30
0.0
  0
VERTEX
  5
8B6
  8
0
 62
     7
 10
151.3797359051856
 20
112.3606789548314
 30
0.0
  0
VERTEX
  5
8B7
  8
0
 62
     7
 10
151.2780103275334
 20
112.2371061787301
 30
0.0
  0
VERTEX
  5
8B8
  8
0
 62
     7
 10
151.1842280661999
 20
112.1070968894819
 30
0.0
  0
VERTEX
  5
8B9
  8
0
 62
     7
 10
151.0987609842646
 20
111.9710238580725
 30
0.0
  0
VERTEX
  5
8BA
  8
0
 62
     7
 10
151.0219809448071
 20
111.8292598554881
 30
0.0
  0
VERTEX
  5
8BB
  8
0
 62
     7
 10
150.9542598109069
 20
111.6821776527145
 30
0.0
  0
VERTEX
  5
8BC
  8
0
 62
     7
 10
150.8959694456434
 20
111.5301500207377
 30
0.0
  0
VERTEX
  5
8BD
  8
0
 62
     7
 10
150.8474817120961
 20
111.3735497305437
 30
0.0
  0
VERTEX
  5
8BE
  8
0
 62
     7
 10
150.8091684733446
 20
111.2127495531185
 30
0.0
  0
VERTEX
  5
8BF
  8
0
 62
     7
 10
150.7814015924684
 20
111.048122259448
 30
0.0
  0
VERTEX
  5
8C0
  8
0
 62
     7
 10
150.7645529325469
 20
110.880040620518
 30
0.0
  0
VERTEX
  5
8C1
  8
0
 62
     7
 10
150.7589943566596
 20
110.7088774073148
 30
0.0
  0
VERTEX
  5
8C2
  8
0
 62
     7
 10
150.7649703021268
 20
110.537728257753
 30
0.0
  0
VERTEX
  5
8C3
  8
0
 62
     7
 10
150.7822287835587
 20
110.3696882044765
 30
0.0
  0
VERTEX
  5
8C4
  8
0
 62
     7
 10
150.8103970299691
 20
110.2051291105647
 30
0.0
  0
VERTEX
  5
8C5
  8
0
 62
     7
 10
150.8491022703721
 20
110.0444228390973
 30
0.0
  0
VERTEX
  5
8C6
  8
0
 62
     7
 10
150.8979717337818
 20
109.8879412531536
 30
0.0
  0
VERTEX
  5
8C7
  8
0
 62
     7
 10
150.9566326492121
 20
109.7360562158132
 30
0.0
  0
VERTEX
  5
8C8
  8
0
 62
     7
 10
151.0247122456772
 20
109.5891395901556
 30
0.0
  0
VERTEX
  5
8C9
  8
0
 62
     7
 10
151.1018377521911
 20
109.4475632392603
 30
0.0
  0
VERTEX
  5
8CA
  8
0
 62
     7
 10
151.1876363977678
 20
109.3116990262067
 30
0.0
  0
VERTEX
  5
8CB
  8
0
 62
     7
 10
151.2817354114213
 20
109.1819188140744
 30
0.0
  0
VERTEX
  5
8CC
  8
0
 62
     7
 10
151.3837620221657
 20
109.0585944659429
 30
0.0
  0
VERTEX
  5
8CD
  8
0
 62
     7
 10
151.493343459015
 20
108.9420978448916
 30
0.0
  0
VERTEX
  5
8CE
  8
0
 62
     7
 10
151.6101069509834
 20
108.8328008140001
 30
0.0
  0
VERTEX
  5
8CF
  8
0
 62
     7
 10
151.7336797270846
 20
108.7310752363478
 30
0.0
  0
VERTEX
  5
8D0
  8
0
 62
     7
 10
151.8636890163329
 20
108.6372929750143
 30
0.0
  0
VERTEX
  5
8D1
  8
0
 62
     7
 10
151.9997620477423
 20
108.5518258930791
 30
0.0
  0
VERTEX
  5
8D2
  8
0
 62
     7
 10
152.1415260503268
 20
108.4750458536216
 30
0.0
  0
VERTEX
  5
8D3
  8
0
 62
     7
 10
152.2886082531004
 20
108.4073247197213
 30
0.0
  0
VERTEX
  5
8D4
  8
0
 62
     7
 10
152.4406358850772
 20
108.3490343544578
 30
0.0
  0
VERTEX
  5
8D5
  8
0
 62
     7
 10
152.5972361752712
 20
108.3005466209106
 30
0.0
  0
VERTEX
  5
8D6
  8
0
 62
     7
 10
152.7580363526965
 20
108.2622333821591
 30
0.0
  0
VERTEX
  5
8D7
  8
0
 62
     7
 10
152.922663646367
 20
108.2344665012828
 30
0.0
  0
VERTEX
  5
8D8
  8
0
 62
     7
 10
153.0907452852969
 20
108.2176178413613
 30
0.0
  0
VERTEX
  5
8D9
  8
0
 62
     7
 10
153.2619084985002
 20
108.212059265474
 30
0.0
  0
VERTEX
  5
8DA
  8
0
 62
     7
 10
153.43276762938
 20
108.2180158892584
 30
0.0
  0
VERTEX
  5
8DB
  8
0
 62
     7
 10
153.6005334891456
 20
108.2352185903716
 30
0.0
  0
VERTEX
  5
8DC
  8
0
 62
     7
 10
153.7648354956963
 20
108.263296786713
 30
0.0
  0
VERTEX
  5
8DD
  8
0
 62
     7
 10
153.9253030669314
 20
108.3018798961818
 30
0.0
  0
VERTEX
  5
8DE
  8
0
 62
     7
 10
154.0815656207502
 20
108.3505973366776
 30
0.0
  0
VERTEX
  5
8DF
  8
0
 62
     7
 10
154.2332525750521
 20
108.4090785260994
 30
0.0
  0
VERTEX
  5
8E0
  8
0
 62
     7
 10
154.3799933477365
 20
108.4769528823468
 30
0.0
  0
VERTEX
  5
8E1
  8
0
 62
     7
 10
154.5214173567026
 20
108.5538498233191
 30
0.0
  0
VERTEX
  5
8E2
  8
0
 62
     7
 10
154.6571540198498
 20
108.6393987669155
 30
0.0
  0
VERTEX
  5
8E3
  8
0
 62
     7
 10
154.7868327550775
 20
108.7332291310355
 30
0.0
  0
VERTEX
  5
8E4
  8
0
 62
     7
 10
154.910082980285
 20
108.8349703335783
 30
0.0
  0
VERTEX
  5
8E5
  8
0
 62
     7
 10
155.0265341133716
 20
108.9442517924433
 30
0.0
  0
VERTEX
  5
8E6
  8
0
 62
     7
 10
155.1358155722366
 20
109.0607029255299
 30
0.0
  0
VERTEX
  5
8E7
  8
0
 62
     7
 10
155.2375567747794
 20
109.1839531507373
 30
0.0
  0
VERTEX
  5
8E8
  8
0
 62
     7
 10
155.3313871388994
 20
109.313631885965
 30
0.0
  0
VERTEX
  5
8E9
  8
0
 62
     7
 10
155.4169360824959
 20
109.4493685491122
 30
0.0
  0
VERTEX
  5
8EA
  8
0
 62
     7
 10
155.4938330234681
 20
109.5907925580783
 30
0.0
  0
VERTEX
  5
8EB
  8
0
 62
     7
 10
155.5617073797155
 20
109.7375333307626
 30
0.0
  0
VERTEX
  5
8EC
  8
0
 62
     7
 10
155.6201885691374
 20
109.8892202850645
 30
0.0
  0
VERTEX
  5
8ED
  8
0
 62
     7
 10
155.6689060096331
 20
110.0454828388833
 30
0.0
  0
VERTEX
  5
8EE
  8
0
 62
     7
 10
155.707489119102
 20
110.2059504101183
 30
0.0
  0
VERTEX
  5
8EF
  8
0
 62
     7
 10
155.7355673154434
 20
110.3702524166689
 30
0.0
  0
VERTEX
  5
8F0
  8
0
 62
     7
 10
155.7527700165566
 20
110.5380182764344
 30
0.0
  0
VERTEX
  5
8F1
  8
0
 62
     7
 10
155.758726640341
 20
110.7088774073142
 30
0.0
  0
SEQEND
  5
C11
  8
0
 62
     7
  0
ENDBLK
  5
405
  8
0
  0
BLOCK
  8
0
  2
BLOCK_77
 70
     0
 10
0.0
 20
0.0
 30
0.0
  3
BLOCK_77
  1

  0
POLYLINE
  5
40B
  8
0
 62
     7
 66
     1
 10
0.0
 20
0.0
 30
0.0
 70
     1
  0
VERTEX
  5
8F2
  8
0
 62
     7
 10
244.6566692403408
 20
177.2589094073145
 30
0.0
  0
VERTEX
  5
8F3
  8
0
 62
     7
 10
244.6596683704782
 20
177.3479152092921
 30
0.0
  0
VERTEX
  5
8F4
  8
0
 62
     7
 10
244.6685366843329
 20
177.4353113539573
 30
0.0
  0
VERTEX
  5
8F5
  8
0
 62
     7
 10
244.6830805670681
 20
177.5209042264735
 30
0.0
  0
VERTEX
  5
8F6
  8
0
 62
     7
 10
244.7031064038474
 20
177.6045002120042
 30
0.0
  0
VERTEX
  5
8F7
  8
0
 62
     7
 10
244.7284205798339
 20
177.6859056957127
 30
0.0
  0
VERTEX
  5
8F8
  8
0
 62
     7
 10
244.7588294801915
 20
177.7649270627625
 30
0.0
  0
VERTEX
  5
8F9
  8
0
 62
     7
 10
244.7941394900833
 20
177.841370698317
 30
0.0
  0
VERTEX
  5
8FA
  8
0
 62
     7
 10
244.8341569946728
 20
177.9150429875395
 30
0.0
  0
VERTEX
  5
8FB
  8
0
 62
     7
 10
244.8786883791233
 20
177.9857503155937
 30
0.0
  0
VERTEX
  5
8FC
  8
0
 62
     7
 10
244.9275400285985
 20
178.0532990676427
 30
0.0
  0
VERTEX
  5
8FD
  8
0
 62
     7
 10
244.9805183282615
 20
178.1174956288502
 30
0.0
  0
VERTEX
  5
8FE
  8
0
 62
     7
 10
245.037429663276
 20
178.1781463843794
 30
0.0
  0
VERTEX
  5
8FF
  8
0
 62
     7
 10
245.0980804188052
 20
178.2350577193938
 30
0.0
  0
VERTEX
  5
900
  8
0
 62
     7
 10
245.1622769800127
 20
178.2880360190569
 30
0.0
  0
VERTEX
  5
901
  8
0
 62
     7
 10
245.2298257320618
 20
178.336887668532
 30
0.0
  0
VERTEX
  5
902
  8
0
 62
     7
 10
245.3005330601159
 20
178.3814190529826
 30
0.0
  0
VERTEX
  5
903
  8
0
 62
     7
 10
245.3742053493385
 20
178.4214365575721
 30
0.0
  0
VERTEX
  5
904
  8
0
 62
     7
 10
245.450648984893
 20
178.4567465674639
 30
0.0
  0
VERTEX
  5
905
  8
0
 62
     7
 10
245.5296703519427
 20
178.4871554678214
 30
0.0
  0
VERTEX
  5
906
  8
0
 62
     7
 10
245.6110758356512
 20
178.5124696438081
 30
0.0
  0
VERTEX
  5
907
  8
0
 62
     7
 10
245.6946718211819
 20
178.5324954805873
 30
0.0
  0
VERTEX
  5
908
  8
0
 62
     7
 10
245.7802646936982
 20
178.5470393633225
 30
0.0
  0
VERTEX
  5
909
  8
0
 62
     7
 10
245.8676608383634
 20
178.5559076771771
 30
0.0
  0
VERTEX
  5
90A
  8
0
 62
     7
 10
245.956666640341
 20
178.5589068073146
 30
0.0
  0
VERTEX
  5
90B
  8
0
 62
     7
 10
246.0456724423186
 20
178.5559076771772
 30
0.0
  0
VERTEX
  5
90C
  8
0
 62
     7
 10
246.1330685869837
 20
178.5470393633226
 30
0.0
  0
VERTEX
  5
90D
  8
0
 62
     7
 10
246.2186614594999
 20
178.5324954805873
 30
0.0
  0
VERTEX
  5
90E
  8
0
 62
     7
 10
246.3022574450305
 20
178.5124696438081
 30
0.0
  0
VERTEX
  5
90F
  8
0
 62
     7
 10
246.3836629287389
 20
178.4871554678214
 30
0.0
  0
VERTEX
  5
910
  8
0
 62
     7
 10
246.4626842957886
 20
178.4567465674639
 30
0.0
  0
VERTEX
  5
911
  8
0
 62
     7
 10
246.539127931343
 20
178.4214365575721
 30
0.0
  0
VERTEX
  5
912
  8
0
 62
     7
 10
246.6128002205656
 20
178.3814190529827
 30
0.0
  0
VERTEX
  5
913
  8
0
 62
     7
 10
246.6835075486197
 20
178.336887668532
 30
0.0
  0
VERTEX
  5
914
  8
0
 62
     7
 10
246.7510563006688
 20
178.2880360190569
 30
0.0
  0
VERTEX
  5
915
  8
0
 62
     7
 10
246.8152528618762
 20
178.2350577193939
 30
0.0
  0
VERTEX
  5
916
  8
0
 62
     7
 10
246.8759036174053
 20
178.1781463843794
 30
0.0
  0
VERTEX
  5
917
  8
0
 62
     7
 10
246.9328149524197
 20
178.1174956288502
 30
0.0
  0
VERTEX
  5
918
  8
0
 62
     7
 10
246.9857932520828
 20
178.0532990676427
 30
0.0
  0
VERTEX
  5
919
  8
0
 62
     7
 10
247.0346449015579
 20
177.9857503155936
 30
0.0
  0
VERTEX
  5
91A
  8
0
 62
     7
 10
247.0791762860085
 20
177.9150429875395
 30
0.0
  0
VERTEX
  5
91B
  8
0
 62
     7
 10
247.119193790598
 20
177.8413706983169
 30
0.0
  0
VERTEX
  5
91C
  8
0
 62
     7
 10
247.1545038004897
 20
177.7649270627625
 30
0.0
  0
VERTEX
  5
91D
  8
0
 62
     7
 10
247.1849127008472
 20
177.6859056957127
 30
0.0
  0
VERTEX
  5
91E
  8
0
 62
     7
 10
247.2102268768339
 20
177.6045002120042
 30
0.0
  0
VERTEX
  5
91F
  8
0
 62
     7
 10
247.2302527136131
 20
177.5209042264735
 30
0.0
  0
VERTEX
  5
920
  8
0
 62
     7
 10
247.2447965963484
 20
177.4353113539573
 30
0.0
  0
VERTEX
  5
921
  8
0
 62
     7
 10
247.253664910203
 20
177.3479152092921
 30
0.0
  0
VERTEX
  5
922
  8
0
 62
     7
 10
247.2566640403404
 20
177.2589094073145
 30
0.0
  0
VERTEX
  5
923
  8
0
 62
     7
 10
247.2536649102029
 20
177.1699036053369
 30
0.0
  0
VERTEX
  5
924
  8
0
 62
     7
 10
247.2447965963484
 20
177.0825074606716
 30
0.0
  0
VERTEX
  5
925
  8
0
 62
     7
 10
247.2302527136131
 20
176.9969145881554
 30
0.0
  0
VERTEX
  5
926
  8
0
 62
     7
 10
247.2102268768339
 20
176.9133186026248
 30
0.0
  0
VERTEX
  5
927
  8
0
 62
     7
 10
247.1849127008473
 20
176.8319131189162
 30
0.0
  0
VERTEX
  5
928
  8
0
 62
     7
 10
247.1545038004897
 20
176.7528917518665
 30
0.0
  0
VERTEX
  5
929
  8
0
 62
     7
 10
247.119193790598
 20
176.676448116312
 30
0.0
  0
VERTEX
  5
92A
  8
0
 62
     7
 10
247.0791762860086
 20
176.6027758270895
 30
0.0
  0
VERTEX
  5
92B
  8
0
 62
     7
 10
247.0346449015579
 20
176.5320684990353
 30
0.0
  0
VERTEX
  5
92C
  8
0
 62
     7
 10
246.9857932520828
 20
176.4645197469863
 30
0.0
  0
VERTEX
  5
92D
  8
0
 62
     7
 10
246.9328149524198
 20
176.4003231857788
 30
0.0
  0
VERTEX
  5
92E
  8
0
 62
     7
 10
246.8759036174053
 20
176.3396724302496
 30
0.0
  0
VERTEX
  5
92F
  8
0
 62
     7
 10
246.8152528618761
 20
176.2827610952352
 30
0.0
  0
VERTEX
  5
930
  8
0
 62
     7
 10
246.7510563006687
 20
176.2297827955721
 30
0.0
  0
VERTEX
  5
931
  8
0
 62
     7
 10
246.6835075486197
 20
176.1809311460971
 30
0.0
  0
VERTEX
  5
932
  8
0
 62
     7
 10
246.6128002205656
 20
176.1363997616465
 30
0.0
  0
VERTEX
  5
933
  8
0
 62
     7
 10
246.539127931343
 20
176.096382257057
 30
0.0
  0
VERTEX
  5
934
  8
0
 62
     7
 10
246.4626842957886
 20
176.0610722471652
 30
0.0
  0
VERTEX
  5
935
  8
0
 62
     7
 10
246.3836629287389
 20
176.0306633468078
 30
0.0
  0
VERTEX
  5
936
  8
0
 62
     7
 10
246.3022574450304
 20
176.0053491708211
 30
0.0
  0
VERTEX
  5
937
  8
0
 62
     7
 10
246.2186614594998
 20
175.9853233340419
 30
0.0
  0
VERTEX
  5
938
  8
0
 62
     7
 10
246.1330685869837
 20
175.9707794513067
 30
0.0
  0
VERTEX
  5
939
  8
0
 62
     7
 10
246.0456724423186
 20
175.9619111374521
 30
0.0
  0
VERTEX
  5
93A
  8
0
 62
     7
 10
245.956666640341
 20
175.9589120073146
 30
0.0
  0
VERTEX
  5
93B
  8
0
 62
     7
 10
245.8676608383634
 20
175.9619111374521
 30
0.0
  0
VERTEX
  5
93C
  8
0
 62
     7
 10
245.7802646936981
 20
175.9707794513066
 30
0.0
  0
VERTEX
  5
93D
  8
0
 62
     7
 10
245.6946718211819
 20
175.9853233340419
 30
0.0
  0
VERTEX
  5
93E
  8
0
 62
     7
 10
245.6110758356513
 20
176.0053491708211
 30
0.0
  0
VERTEX
  5
93F
  8
0
 62
     7
 10
245.5296703519428
 20
176.0306633468077
 30
0.0
  0
VERTEX
  5
940
  8
0
 62
     7
 10
245.450648984893
 20
176.0610722471653
 30
0.0
  0
VERTEX
  5
941
  8
0
 62
     7
 10
245.3742053493385
 20
176.096382257057
 30
0.0
  0
VERTEX
  5
942
  8
0
 62
     7
 10
245.3005330601159
 20
176.1363997616465
 30
0.0
  0
VERTEX
  5
943
  8
0
 62
     7
 10
245.2298257320617
 20
176.1809311460971
 30
0.0
  0
VERTEX
  5
944
  8
0
 62
     7
 10
245.1622769800127
 20
176.2297827955722
 30
0.0
  0
VERTEX
  5
945
  8
0
 62
     7
 10
245.0980804188053
 20
176.2827610952352
 30
0.0
  0
VERTEX
  5
946
  8
0
 62
     7
 10
245.037429663276
 20
176.3396724302496
 30
0.0
  0
VERTEX
  5
947
  8
0
 62
     7
 10
244.9805183282615
 20
176.4003231857788
 30
0.0
  0
VERTEX
  5
948
  8
0
 62
     7
 10
244.9275400285985
 20
176.4645197469862
 30
0.0
  0
VERTEX
  5
949
  8
0
 62
     7
 10
244.8786883791234
 20
176.5320684990353
 30
0.0
  0
VERTEX
  5
94A
  8
0
 62
     7
 10
244.8341569946728
 20
176.6027758270894
 30
0.0
  0
VERTEX
  5
94B
  8
0
 62
     7
 10
244.7941394900833
 20
176.676448116312
 30
0.0
  0
VERTEX
  5
94C
  8
0
 62
     7
 10
244.7588294801915
 20
176.7528917518665
 30
0.0
  0
VERTEX
  5
94D
  8
0
 62
     7
 10
244.728420579834
 20
176.8319131189162
 30
0.0
  0
VERTEX
  5
94E
  8
0
 62
     7
 10
244.7031064038473
 20
176.9133186026247
 30
0.0
  0
VERTEX
  5
94F
  8
0
 62
     7
 10
244.6830805670681
 20
176.9969145881554
 30
0.0
  0
VERTEX
  5
950
  8
0
 62
     7
 10
244.6685366843328
 20
177.0825074606716
 30
0.0
  0
VERTEX
  5
951
  8
0
 62
     7
 10
244.6596683704782
 20
177.1699036053369
 30
0.0
  0
VERTEX
  5
952
  8
0
 62
     7
 10
244.6566692403408
 20
177.2589094073145
 30
0.0
  0
VERTEX
  5
953
  8
0
 62
     7
 10
244.6566692403408
 20
177.2589094073145
 30
0.0
  0
VERTEX
  5
954
  8
0
 62
     7
 10
244.6566692403408
 20
177.2589094073145
 30
0.0
  0
VERTEX
  5
955
  8
0
 62
     7
 10
244.6566692403408
 20
177.2589094073145
 30
0.0
  0
VERTEX
  5
956
  8
0
 62
     7
 10
244.6566692403408
 20
177.2589094073145
 30
0.0
  0
VERTEX
  5
957
  8
0
 62
     7
 10
244.6566692403408
 20
177.2589094073145
 30
0.0
  0
VERTEX
  5
958
  8
0
 62
     7
 10
244.6566692403408
 20
177.2589094073145
 30
0.0
  0
VERTEX
  5
959
  8
0
 62
     7
 10
244.6566692403408
 20
177.2589094073145
 30
0.0
  0
VERTEX
  5
95A
  8
0
 62
     7
 10
244.6566692403408
 20
177.2589094073145
 30
0.0
  0
VERTEX
  5
95B
  8
0
 62
     7
 10
244.6566692403408
 20
177.2589094073145
 30
0.0
  0
VERTEX
  5
95C
  8
0
 62
     7
 10
244.6566692403408
 20
177.2589094073145
 30
0.0
  0
VERTEX
  5
95D
  8
0
 62
     7
 10
244.6566692403408
 20
177.2589094073145
 30
0.0
  0
VERTEX
  5
95E
  8
0
 62
     7
 10
244.6566692403408
 20
177.2589094073145
 30
0.0
  0
VERTEX
  5
95F
  8
0
 62
     7
 10
244.6566692403408
 20
177.2589094073145
 30
0.0
  0
VERTEX
  5
960
  8
0
 62
     7
 10
244.6566692403408
 20
177.2589094073145
 30
0.0
  0
VERTEX
  5
961
  8
0
 62
     7
 10
244.6566692403408
 20
177.2589094073145
 30
0.0
  0
VERTEX
  5
962
  8
0
 62
     7
 10
244.6566692403408
 20
177.2589094073145
 30
0.0
  0
VERTEX
  5
963
  8
0
 62
     7
 10
244.6566692403408
 20
177.2589094073145
 30
0.0
  0
VERTEX
  5
964
  8
0
 62
     7
 10
244.6566692403408
 20
177.2589094073145
 30
0.0
  0
VERTEX
  5
965
  8
0
 62
     7
 10
244.6566692403408
 20
177.2589094073145
 30
0.0
  0
VERTEX
  5
966
  8
0
 62
     7
 10
244.6566692403408
 20
177.2589094073145
 30
0.0
  0
VERTEX
  5
967
  8
0
 62
     7
 10
244.6566692403408
 20
177.2589094073145
 30
0.0
  0
VERTEX
  5
968
  8
0
 62
     7
 10
244.6566692403408
 20
177.2589094073145
 30
0.0
  0
VERTEX
  5
969
  8
0
 62
     7
 10
244.6566692403408
 20
177.2589094073145
 30
0.0
  0
SEQEND
  5
C12
  8
0
 62
     7
  0
ENDBLK
  5
40A
  8
0
  0
BLOCK
  8
0
  2
BLOCK_78
 70
     0
 10
0.0
 20
0.0
 30
0.0
  3
BLOCK_78
  1

  0
POLYLINE
  5
410
  8
0
 62
     7
 66
     1
 10
0.0
 20
0.0
 30
0.0
 70
     1
  0
VERTEX
  5
96A
  8
0
 62
     7
 10
244.6566692403408
 20
120.1089094073145
 30
0.0
  0
VERTEX
  5
96B
  8
0
 62
     7
 10
244.6596683704782
 20
120.1979152092921
 30
0.0
  0
VERTEX
  5
96C
  8
0
 62
     7
 10
244.6685366843329
 20
120.2853113539573
 30
0.0
  0
VERTEX
  5
96D
  8
0
 62
     7
 10
244.6830805670681
 20
120.3709042264736
 30
0.0
  0
VERTEX
  5
96E
  8
0
 62
     7
 10
244.7031064038474
 20
120.4545002120042
 30
0.0
  0
VERTEX
  5
96F
  8
0
 62
     7
 10
244.7284205798339
 20
120.5359056957127
 30
0.0
  0
VERTEX
  5
970
  8
0
 62
     7
 10
244.7588294801915
 20
120.6149270627625
 30
0.0
  0
VERTEX
  5
971
  8
0
 62
     7
 10
244.7941394900833
 20
120.691370698317
 30
0.0
  0
VERTEX
  5
972
  8
0
 62
     7
 10
244.8341569946728
 20
120.7650429875396
 30
0.0
  0
VERTEX
  5
973
  8
0
 62
     7
 10
244.8786883791233
 20
120.8357503155937
 30
0.0
  0
VERTEX
  5
974
  8
0
 62
     7
 10
244.9275400285985
 20
120.9032990676428
 30
0.0
  0
VERTEX
  5
975
  8
0
 62
     7
 10
244.9805183282615
 20
120.9674956288502
 30
0.0
  0
VERTEX
  5
976
  8
0
 62
     7
 10
245.037429663276
 20
121.0281463843795
 30
0.0
  0
VERTEX
  5
977
  8
0
 62
     7
 10
245.0980804188052
 20
121.0850577193939
 30
0.0
  0
VERTEX
  5
978
  8
0
 62
     7
 10
245.1622769800127
 20
121.138036019057
 30
0.0
  0
VERTEX
  5
979
  8
0
 62
     7
 10
245.2298257320618
 20
121.1868876685321
 30
0.0
  0
VERTEX
  5
97A
  8
0
 62
     7
 10
245.3005330601159
 20
121.2314190529827
 30
0.0
  0
VERTEX
  5
97B
  8
0
 62
     7
 10
245.3742053493385
 20
121.2714365575722
 30
0.0
  0
VERTEX
  5
97C
  8
0
 62
     7
 10
245.450648984893
 20
121.306746567464
 30
0.0
  0
VERTEX
  5
97D
  8
0
 62
     7
 10
245.5296703519427
 20
121.3371554678215
 30
0.0
  0
VERTEX
  5
97E
  8
0
 62
     7
 10
245.6110758356512
 20
121.3624696438082
 30
0.0
  0
VERTEX
  5
97F
  8
0
 62
     7
 10
245.6946718211819
 20
121.3824954805874
 30
0.0
  0
VERTEX
  5
980
  8
0
 62
     7
 10
245.7802646936982
 20
121.3970393633226
 30
0.0
  0
VERTEX
  5
981
  8
0
 62
     7
 10
245.8676608383634
 20
121.4059076771773
 30
0.0
  0
VERTEX
  5
982
  8
0
 62
     7
 10
245.956666640341
 20
121.4089068073147
 30
0.0
  0
VERTEX
  5
983
  8
0
 62
     7
 10
246.0456724423186
 20
121.4059076771773
 30
0.0
  0
VERTEX
  5
984
  8
0
 62
     7
 10
246.1330685869837
 20
121.3970393633226
 30
0.0
  0
VERTEX
  5
985
  8
0
 62
     7
 10
246.2186614594999
 20
121.3824954805874
 30
0.0
  0
VERTEX
  5
986
  8
0
 62
     7
 10
246.3022574450305
 20
121.3624696438082
 30
0.0
  0
VERTEX
  5
987
  8
0
 62
     7
 10
246.3836629287389
 20
121.3371554678215
 30
0.0
  0
VERTEX
  5
988
  8
0
 62
     7
 10
246.4626842957886
 20
121.306746567464
 30
0.0
  0
VERTEX
  5
989
  8
0
 62
     7
 10
246.539127931343
 20
121.2714365575722
 30
0.0
  0
VERTEX
  5
98A
  8
0
 62
     7
 10
246.6128002205656
 20
121.2314190529827
 30
0.0
  0
VERTEX
  5
98B
  8
0
 62
     7
 10
246.6835075486197
 20
121.1868876685321
 30
0.0
  0
VERTEX
  5
98C
  8
0
 62
     7
 10
246.7510563006688
 20
121.138036019057
 30
0.0
  0
VERTEX
  5
98D
  8
0
 62
     7
 10
246.8152528618762
 20
121.0850577193939
 30
0.0
  0
VERTEX
  5
98E
  8
0
 62
     7
 10
246.8759036174053
 20
121.0281463843795
 30
0.0
  0
VERTEX
  5
98F
  8
0
 62
     7
 10
246.9328149524197
 20
120.9674956288502
 30
0.0
  0
VERTEX
  5
990
  8
0
 62
     7
 10
246.9857932520828
 20
120.9032990676428
 30
0.0
  0
VERTEX
  5
991
  8
0
 62
     7
 10
247.0346449015579
 20
120.8357503155937
 30
0.0
  0
VERTEX
  5
992
  8
0
 62
     7
 10
247.0791762860085
 20
120.7650429875396
 30
0.0
  0
VERTEX
  5
993
  8
0
 62
     7
 10
247.119193790598
 20
120.691370698317
 30
0.0
  0
VERTEX
  5
994
  8
0
 62
     7
 10
247.1545038004897
 20
120.6149270627625
 30
0.0
  0
VERTEX
  5
995
  8
0
 62
     7
 10
247.1849127008472
 20
120.5359056957127
 30
0.0
  0
VERTEX
  5
996
  8
0
 62
     7
 10
247.2102268768339
 20
120.4545002120042
 30
0.0
  0
VERTEX
  5
997
  8
0
 62
     7
 10
247.2302527136131
 20
120.3709042264736
 30
0.0
  0
VERTEX
  5
998
  8
0
 62
     7
 10
247.2447965963484
 20
120.2853113539574
 30
0.0
  0
VERTEX
  5
999
  8
0
 62
     7
 10
247.253664910203
 20
120.1979152092921
 30
0.0
  0
VERTEX
  5
99A
  8
0
 62
     7
 10
247.2566640403404
 20
120.1089094073145
 30
0.0
  0
VERTEX
  5
99B
  8
0
 62
     7
 10
247.2536649102029
 20
120.0199036053369
 30
0.0
  0
VERTEX
  5
99C
  8
0
 62
     7
 10
247.2447965963484
 20
119.9325074606717
 30
0.0
  0
VERTEX
  5
99D
  8
0
 62
     7
 10
247.2302527136131
 20
119.8469145881554
 30
0.0
  0
VERTEX
  5
99E
  8
0
 62
     7
 10
247.2102268768339
 20
119.7633186026248
 30
0.0
  0
VERTEX
  5
99F
  8
0
 62
     7
 10
247.1849127008473
 20
119.6819131189162
 30
0.0
  0
VERTEX
  5
9A0
  8
0
 62
     7
 10
247.1545038004897
 20
119.6028917518665
 30
0.0
  0
VERTEX
  5
9A1
  8
0
 62
     7
 10
247.119193790598
 20
119.526448116312
 30
0.0
  0
VERTEX
  5
9A2
  8
0
 62
     7
 10
247.0791762860086
 20
119.4527758270894
 30
0.0
  0
VERTEX
  5
9A3
  8
0
 62
     7
 10
247.0346449015579
 20
119.3820684990353
 30
0.0
  0
VERTEX
  5
9A4
  8
0
 62
     7
 10
246.9857932520828
 20
119.3145197469862
 30
0.0
  0
VERTEX
  5
9A5
  8
0
 62
     7
 10
246.9328149524198
 20
119.2503231857788
 30
0.0
  0
VERTEX
  5
9A6
  8
0
 62
     7
 10
246.8759036174053
 20
119.1896724302495
 30
0.0
  0
VERTEX
  5
9A7
  8
0
 62
     7
 10
246.8152528618761
 20
119.1327610952351
 30
0.0
  0
VERTEX
  5
9A8
  8
0
 62
     7
 10
246.7510563006687
 20
119.079782795572
 30
0.0
  0
VERTEX
  5
9A9
  8
0
 62
     7
 10
246.6835075486197
 20
119.0309311460969
 30
0.0
  0
VERTEX
  5
9AA
  8
0
 62
     7
 10
246.6128002205656
 20
118.9863997616463
 30
0.0
  0
VERTEX
  5
9AB
  8
0
 62
     7
 10
246.539127931343
 20
118.9463822570569
 30
0.0
  0
VERTEX
  5
9AC
  8
0
 62
     7
 10
246.4626842957886
 20
118.9110722471651
 30
0.0
  0
VERTEX
  5
9AD
  8
0
 62
     7
 10
246.3836629287389
 20
118.8806633468076
 30
0.0
  0
VERTEX
  5
9AE
  8
0
 62
     7
 10
246.3022574450304
 20
118.8553491708209
 30
0.0
  0
VERTEX
  5
9AF
  8
0
 62
     7
 10
246.2186614594998
 20
118.8353233340417
 30
0.0
  0
VERTEX
  5
9B0
  8
0
 62
     7
 10
246.1330685869837
 20
118.8207794513065
 30
0.0
  0
VERTEX
  5
9B1
  8
0
 62
     7
 10
246.0456724423186
 20
118.8119111374519
 30
0.0
  0
VERTEX
  5
9B2
  8
0
 62
     7
 10
245.956666640341
 20
118.8089120073144
 30
0.0
  0
VERTEX
  5
9B3
  8
0
 62
     7
 10
245.8676608383634
 20
118.8119111374518
 30
0.0
  0
VERTEX
  5
9B4
  8
0
 62
     7
 10
245.7802646936981
 20
118.8207794513065
 30
0.0
  0
VERTEX
  5
9B5
  8
0
 62
     7
 10
245.6946718211819
 20
118.8353233340417
 30
0.0
  0
VERTEX
  5
9B6
  8
0
 62
     7
 10
245.6110758356513
 20
118.8553491708209
 30
0.0
  0
VERTEX
  5
9B7
  8
0
 62
     7
 10
245.5296703519428
 20
118.8806633468076
 30
0.0
  0
VERTEX
  5
9B8
  8
0
 62
     7
 10
245.450648984893
 20
118.9110722471651
 30
0.0
  0
VERTEX
  5
9B9
  8
0
 62
     7
 10
245.3742053493385
 20
118.9463822570569
 30
0.0
  0
VERTEX
  5
9BA
  8
0
 62
     7
 10
245.3005330601159
 20
118.9863997616463
 30
0.0
  0
VERTEX
  5
9BB
  8
0
 62
     7
 10
245.2298257320617
 20
119.0309311460969
 30
0.0
  0
VERTEX
  5
9BC
  8
0
 62
     7
 10
245.1622769800127
 20
119.079782795572
 30
0.0
  0
VERTEX
  5
9BD
  8
0
 62
     7
 10
245.0980804188053
 20
119.1327610952351
 30
0.0
  0
VERTEX
  5
9BE
  8
0
 62
     7
 10
245.037429663276
 20
119.1896724302495
 30
0.0
  0
VERTEX
  5
9BF
  8
0
 62
     7
 10
244.9805183282615
 20
119.2503231857787
 30
0.0
  0
VERTEX
  5
9C0
  8
0
 62
     7
 10
244.9275400285985
 20
119.3145197469862
 30
0.0
  0
VERTEX
  5
9C1
  8
0
 62
     7
 10
244.8786883791234
 20
119.3820684990353
 30
0.0
  0
VERTEX
  5
9C2
  8
0
 62
     7
 10
244.8341569946728
 20
119.4527758270894
 30
0.0
  0
VERTEX
  5
9C3
  8
0
 62
     7
 10
244.7941394900833
 20
119.526448116312
 30
0.0
  0
VERTEX
  5
9C4
  8
0
 62
     7
 10
244.7588294801915
 20
119.6028917518665
 30
0.0
  0
VERTEX
  5
9C5
  8
0
 62
     7
 10
244.728420579834
 20
119.6819131189162
 30
0.0
  0
VERTEX
  5
9C6
  8
0
 62
     7
 10
244.7031064038473
 20
119.7633186026248
 30
0.0
  0
VERTEX
  5
9C7
  8
0
 62
     7
 10
244.6830805670681
 20
119.8469145881554
 30
0.0
  0
VERTEX
  5
9C8
  8
0
 62
     7
 10
244.6685366843328
 20
119.9325074606716
 30
0.0
  0
VERTEX
  5
9C9
  8
0
 62
     7
 10
244.6596683704782
 20
120.0199036053369
 30
0.0
  0
VERTEX
  5
9CA
  8
0
 62
     7
 10
244.6566692403408
 20
120.1089094073145
 30
0.0
  0
VERTEX
  5
9CB
  8
0
 62
     7
 10
244.6566692403408
 20
120.1089094073145
 30
0.0
  0
VERTEX
  5
9CC
  8
0
 62
     7
 10
244.6566692403408
 20
120.1089094073145
 30
0.0
  0
VERTEX
  5
9CD
  8
0
 62
     7
 10
244.6566692403408
 20
120.1089094073145
 30
0.0
  0
VERTEX
  5
9CE
  8
0
 62
     7
 10
244.6566692403408
 20
120.1089094073145
 30
0.0
  0
VERTEX
  5
9CF
  8
0
 62
     7
 10
244.6566692403408
 20
120.1089094073145
 30
0.0
  0
VERTEX
  5
9D0
  8
0
 62
     7
 10
244.6566692403408
 20
120.1089094073145
 30
0.0
  0
VERTEX
  5
9D1
  8
0
 62
     7
 10
244.6566692403408
 20
120.1089094073145
 30
0.0
  0
VERTEX
  5
9D2
  8
0
 62
     7
 10
244.6566692403408
 20
120.1089094073145
 30
0.0
  0
VERTEX
  5
9D3
  8
0
 62
     7
 10
244.6566692403408
 20
120.1089094073145
 30
0.0
  0
VERTEX
  5
9D4
  8
0
 62
     7
 10
244.6566692403408
 20
120.1089094073145
 30
0.0
  0
VERTEX
  5
9D5
  8
0
 62
     7
 10
244.6566692403408
 20
120.1089094073145
 30
0.0
  0
VERTEX
  5
9D6
  8
0
 62
     7
 10
244.6566692403408
 20
120.1089094073145
 30
0.0
  0
VERTEX
  5
9D7
  8
0
 62
     7
 10
244.6566692403408
 20
120.1089094073145
 30
0.0
  0
VERTEX
  5
9D8
  8
0
 62
     7
 10
244.6566692403408
 20
120.1089094073145
 30
0.0
  0
VERTEX
  5
9D9
  8
0
 62
     7
 10
244.6566692403408
 20
120.1089094073145
 30
0.0
  0
VERTEX
  5
9DA
  8
0
 62
     7
 10
244.6566692403408
 20
120.1089094073145
 30
0.0
  0
VERTEX
  5
9DB
  8
0
 62
     7
 10
244.6566692403408
 20
120.1089094073145
 30
0.0
  0
VERTEX
  5
9DC
  8
0
 62
     7
 10
244.6566692403408
 20
120.1089094073145
 30
0.0
  0
VERTEX
  5
9DD
  8
0
 62
     7
 10
244.6566692403408
 20
120.1089094073145
 30
0.0
  0
VERTEX
  5
9DE
  8
0
 62
     7
 10
244.6566692403408
 20
120.1089094073145
 30
0.0
  0
VERTEX
  5
9DF
  8
0
 62
     7
 10
244.6566692403408
 20
120.1089094073145
 30
0.0
  0
VERTEX
  5
9E0
  8
0
 62
     7
 10
244.6566692403408
 20
120.1089094073145
 30
0.0
  0
VERTEX
  5
9E1
  8
0
 62
     7
 10
244.6566692403408
 20
120.1089094073145
 30
0.0
  0
SEQEND
  5
C13
  8
0
 62
     7
  0
ENDBLK
  5
40F
  8
0
  0
BLOCK
  8
0
  2
BLOCK_79
 70
     0
 10
0.0
 20
0.0
 30
0.0
  3
BLOCK_79
  1

  0
POLYLINE
  5
415
  8
0
 62
     7
 66
     1
 10
0.0
 20
0.0
 30
0.0
 70
     1
  0
VERTEX
  5
9E2
  8
0
 62
     7
 10
104.1629192403405
 20
158.2089094073146
 30
0.0
  0
VERTEX
  5
9E3
  8
0
 62
     7
 10
104.165918370478
 20
158.2979152092922
 30
0.0
  0
VERTEX
  5
9E4
  8
0
 62
     7
 10
104.1747866843326
 20
158.3853113539575
 30
0.0
  0
VERTEX
  5
9E5
  8
0
 62
     7
 10
104.1893305670678
 20
158.4709042264737
 30
0.0
  0
VERTEX
  5
9E6
  8
0
 62
     7
 10
104.209356403847
 20
158.5545002120043
 30
0.0
  0
VERTEX
  5
9E7
  8
0
 62
     7
 10
104.2346705798337
 20
158.6359056957128
 30
0.0
  0
VERTEX
  5
9E8
  8
0
 62
     7
 10
104.2650794801912
 20
158.7149270627626
 30
0.0
  0
VERTEX
  5
9E9
  8
0
 62
     7
 10
104.300389490083
 20
158.7913706983171
 30
0.0
  0
VERTEX
  5
9EA
  8
0
 62
     7
 10
104.3404069946724
 20
158.8650429875397
 30
0.0
  0
VERTEX
  5
9EB
  8
0
 62
     7
 10
104.384938379123
 20
158.9357503155938
 30
0.0
  0
VERTEX
  5
9EC
  8
0
 62
     7
 10
104.4337900285982
 20
159.0032990676429
 30
0.0
  0
VERTEX
  5
9ED
  8
0
 62
     7
 10
104.4867683282612
 20
159.0674956288503
 30
0.0
  0
VERTEX
  5
9EE
  8
0
 62
     7
 10
104.5436796632757
 20
159.1281463843795
 30
0.0
  0
VERTEX
  5
9EF
  8
0
 62
     7
 10
104.6043304188049
 20
159.185057719394
 30
0.0
  0
VERTEX
  5
9F0
  8
0
 62
     7
 10
104.6685269800123
 20
159.2380360190571
 30
0.0
  0
VERTEX
  5
9F1
  8
0
 62
     7
 10
104.7360757320614
 20
159.2868876685322
 30
0.0
  0
VERTEX
  5
9F2
  8
0
 62
     7
 10
104.8067830601155
 20
159.3314190529828
 30
0.0
  0
VERTEX
  5
9F3
  8
0
 62
     7
 10
104.8804553493381
 20
159.3714365575722
 30
0.0
  0
VERTEX
  5
9F4
  8
0
 62
     7
 10
104.9568989848925
 20
159.406746567464
 30
0.0
  0
VERTEX
  5
9F5
  8
0
 62
     7
 10
105.0359203519423
 20
159.4371554678215
 30
0.0
  0
VERTEX
  5
9F6
  8
0
 62
     7
 10
105.1173258356507
 20
159.4624696438082
 30
0.0
  0
VERTEX
  5
9F7
  8
0
 62
     7
 10
105.2009218211814
 20
159.4824954805874
 30
0.0
  0
VERTEX
  5
9F8
  8
0
 62
     7
 10
105.2865146936976
 20
159.4970393633226
 30
0.0
  0
VERTEX
  5
9F9
  8
0
 62
     7
 10
105.3739108383627
 20
159.5059076771772
 30
0.0
  0
VERTEX
  5
9FA
  8
0
 62
     7
 10
105.4629166403403
 20
159.5089068073147
 30
0.0
  0
VERTEX
  5
9FB
  8
0
 62
     7
 10
105.5519224423179
 20
159.5059076771773
 30
0.0
  0
VERTEX
  5
9FC
  8
0
 62
     7
 10
105.6393185869832
 20
159.4970393633227
 30
0.0
  0
VERTEX
  5
9FD
  8
0
 62
     7
 10
105.7249114594994
 20
159.4824954805874
 30
0.0
  0
VERTEX
  5
9FE
  8
0
 62
     7
 10
105.8085074450301
 20
159.4624696438082
 30
0.0
  0
VERTEX
  5
9FF
  8
0
 62
     7
 10
105.8899129287386
 20
159.4371554678215
 30
0.0
  0
VERTEX
  5
A00
  8
0
 62
     7
 10
105.9689342957884
 20
159.406746567464
 30
0.0
  0
VERTEX
  5
A01
  8
0
 62
     7
 10
106.0453779313428
 20
159.3714365575722
 30
0.0
  0
VERTEX
  5
A02
  8
0
 62
     7
 10
106.1190502205655
 20
159.3314190529828
 30
0.0
  0
VERTEX
  5
A03
  8
0
 62
     7
 10
106.1897575486196
 20
159.2868876685322
 30
0.0
  0
VERTEX
  5
A04
  8
0
 62
     7
 10
106.2573063006687
 20
159.2380360190571
 30
0.0
  0
VERTEX
  5
A05
  8
0
 62
     7
 10
106.3215028618761
 20
159.185057719394
 30
0.0
  0
VERTEX
  5
A06
  8
0
 62
     7
 10
106.3821536174053
 20
159.1281463843796
 30
0.0
  0
VERTEX
  5
A07
  8
0
 62
     7
 10
106.4390649524198
 20
159.0674956288503
 30
0.0
  0
VERTEX
  5
A08
  8
0
 62
     7
 10
106.4920432520828
 20
159.0032990676429
 30
0.0
  0
VERTEX
  5
A09
  8
0
 62
     7
 10
106.5408949015579
 20
158.9357503155938
 30
0.0
  0
VERTEX
  5
A0A
  8
0
 62
     7
 10
106.5854262860086
 20
158.8650429875397
 30
0.0
  0
VERTEX
  5
A0B
  8
0
 62
     7
 10
106.625443790598
 20
158.7913706983171
 30
0.0
  0
VERTEX
  5
A0C
  8
0
 62
     7
 10
106.6607538004898
 20
158.7149270627626
 30
0.0
  0
VERTEX
  5
A0D
  8
0
 62
     7
 10
106.6911627008473
 20
158.6359056957128
 30
0.0
  0
VERTEX
  5
A0E
  8
0
 62
     7
 10
106.716476876834
 20
158.5545002120043
 30
0.0
  0
VERTEX
  5
A0F
  8
0
 62
     7
 10
106.7365027136132
 20
158.4709042264737
 30
0.0
  0
VERTEX
  5
A10
  8
0
 62
     7
 10
106.7510465963485
 20
158.3853113539575
 30
0.0
  0
VERTEX
  5
A11
  8
0
 62
     7
 10
106.7599149102031
 20
158.2979152092922
 30
0.0
  0
VERTEX
  5
A12
  8
0
 62
     7
 10
106.7629140403405
 20
158.2089094073146
 30
0.0
  0
VERTEX
  5
A13
  8
0
 62
     7
 10
106.759914910203
 20
158.119903605337
 30
0.0
  0
VERTEX
  5
A14
  8
0
 62
     7
 10
106.7510465963485
 20
158.0325074606718
 30
0.0
  0
VERTEX
  5
A15
  8
0
 62
     7
 10
106.7365027136132
 20
157.9469145881555
 30
0.0
  0
VERTEX
  5
A16
  8
0
 62
     7
 10
106.716476876834
 20
157.8633186026249
 30
0.0
  0
VERTEX
  5
A17
  8
0
 62
     7
 10
106.6911627008473
 20
157.7819131189164
 30
0.0
  0
VERTEX
  5
A18
  8
0
 62
     7
 10
106.6607538004898
 20
157.7028917518666
 30
0.0
  0
VERTEX
  5
A19
  8
0
 62
     7
 10
106.625443790598
 20
157.6264481163121
 30
0.0
  0
VERTEX
  5
A1A
  8
0
 62
     7
 10
106.5854262860086
 20
157.5527758270896
 30
0.0
  0
VERTEX
  5
A1B
  8
0
 62
     7
 10
106.540894901558
 20
157.4820684990354
 30
0.0
  0
VERTEX
  5
A1C
  8
0
 62
     7
 10
106.4920432520828
 20
157.4145197469863
 30
0.0
  0
VERTEX
  5
A1D
  8
0
 62
     7
 10
106.4390649524198
 20
157.3503231857789
 30
0.0
  0
VERTEX
  5
A1E
  8
0
 62
     7
 10
106.3821536174053
 20
157.2896724302497
 30
0.0
  0
VERTEX
  5
A1F
  8
0
 62
     7
 10
106.3215028618761
 20
157.2327610952352
 30
0.0
  0
VERTEX
  5
A20
  8
0
 62
     7
 10
106.2573063006687
 20
157.1797827955722
 30
0.0
  0
VERTEX
  5
A21
  8
0
 62
     7
 10
106.1897575486196
 20
157.1309311460971
 30
0.0
  0
VERTEX
  5
A22
  8
0
 62
     7
 10
106.1190502205654
 20
157.0863997616465
 30
0.0
  0
VERTEX
  5
A23
  8
0
 62
     7
 10
106.0453779313429
 20
157.046382257057
 30
0.0
  0
VERTEX
  5
A24
  8
0
 62
     7
 10
105.9689342957884
 20
157.0110722471652
 30
0.0
  0
VERTEX
  5
A25
  8
0
 62
     7
 10
105.8899129287386
 20
156.9806633468077
 30
0.0
  0
VERTEX
  5
A26
  8
0
 62
     7
 10
105.8085074450301
 20
156.955349170821
 30
0.0
  0
VERTEX
  5
A27
  8
0
 62
     7
 10
105.7249114594994
 20
156.9353233340418
 30
0.0
  0
VERTEX
  5
A28
  8
0
 62
     7
 10
105.6393185869832
 20
156.9207794513066
 30
0.0
  0
VERTEX
  5
A29
  8
0
 62
     7
 10
105.5519224423179
 20
156.911911137452
 30
0.0
  0
VERTEX
  5
A2A
  8
0
 62
     7
 10
105.4629166403403
 20
156.9089120073145
 30
0.0
  0
VERTEX
  5
A2B
  8
0
 62
     7
 10
105.3739108383627
 20
156.911911137452
 30
0.0
  0
VERTEX
  5
A2C
  8
0
 62
     7
 10
105.2865146936976
 20
156.9207794513066
 30
0.0
  0
VERTEX
  5
A2D
  8
0
 62
     7
 10
105.2009218211814
 20
156.9353233340418
 30
0.0
  0
VERTEX
  5
A2E
  8
0
 62
     7
 10
105.1173258356508
 20
156.955349170821
 30
0.0
  0
VERTEX
  5
A2F
  8
0
 62
     7
 10
105.0359203519423
 20
156.9806633468077
 30
0.0
  0
VERTEX
  5
A30
  8
0
 62
     7
 10
104.9568989848925
 20
157.0110722471652
 30
0.0
  0
VERTEX
  5
A31
  8
0
 62
     7
 10
104.880455349338
 20
157.046382257057
 30
0.0
  0
VERTEX
  5
A32
  8
0
 62
     7
 10
104.8067830601155
 20
157.0863997616465
 30
0.0
  0
VERTEX
  5
A33
  8
0
 62
     7
 10
104.7360757320614
 20
157.1309311460971
 30
0.0
  0
VERTEX
  5
A34
  8
0
 62
     7
 10
104.6685269800123
 20
157.1797827955722
 30
0.0
  0
VERTEX
  5
A35
  8
0
 62
     7
 10
104.6043304188049
 20
157.2327610952353
 30
0.0
  0
VERTEX
  5
A36
  8
0
 62
     7
 10
104.5436796632757
 20
157.2896724302497
 30
0.0
  0
VERTEX
  5
A37
  8
0
 62
     7
 10
104.4867683282612
 20
157.3503231857789
 30
0.0
  0
VERTEX
  5
A38
  8
0
 62
     7
 10
104.4337900285982
 20
157.4145197469863
 30
0.0
  0
VERTEX
  5
A39
  8
0
 62
     7
 10
104.3849383791231
 20
157.4820684990354
 30
0.0
  0
VERTEX
  5
A3A
  8
0
 62
     7
 10
104.3404069946725
 20
157.5527758270895
 30
0.0
  0
VERTEX
  5
A3B
  8
0
 62
     7
 10
104.300389490083
 20
157.6264481163121
 30
0.0
  0
VERTEX
  5
A3C
  8
0
 62
     7
 10
104.2650794801912
 20
157.7028917518666
 30
0.0
  0
VERTEX
  5
A3D
  8
0
 62
     7
 10
104.2346705798337
 20
157.7819131189163
 30
0.0
  0
VERTEX
  5
A3E
  8
0
 62
     7
 10
104.209356403847
 20
157.8633186026249
 30
0.0
  0
VERTEX
  5
A3F
  8
0
 62
     7
 10
104.1893305670678
 20
157.9469145881556
 30
0.0
  0
VERTEX
  5
A40
  8
0
 62
     7
 10
104.1747866843326
 20
158.0325074606718
 30
0.0
  0
VERTEX
  5
A41
  8
0
 62
     7
 10
104.165918370478
 20
158.119903605337
 30
0.0
  0
VERTEX
  5
A42
  8
0
 62
     7
 10
104.1629192403405
 20
158.2089094073146
 30
0.0
  0
VERTEX
  5
A43
  8
0
 62
     7
 10
104.1629192403405
 20
158.2089094073146
 30
0.0
  0
VERTEX
  5
A44
  8
0
 62
     7
 10
104.1629192403405
 20
158.2089094073146
 30
0.0
  0
VERTEX
  5
A45
  8
0
 62
     7
 10
104.1629192403405
 20
158.2089094073146
 30
0.0
  0
VERTEX
  5
A46
  8
0
 62
     7
 10
104.1629192403405
 20
158.2089094073146
 30
0.0
  0
VERTEX
  5
A47
  8
0
 62
     7
 10
104.1629192403405
 20
158.2089094073146
 30
0.0
  0
VERTEX
  5
A48
  8
0
 62
     7
 10
104.1629192403405
 20
158.2089094073146
 30
0.0
  0
VERTEX
  5
A49
  8
0
 62
     7
 10
104.1629192403405
 20
158.2089094073146
 30
0.0
  0
VERTEX
  5
A4A
  8
0
 62
     7
 10
104.1629192403405
 20
158.2089094073146
 30
0.0
  0
VERTEX
  5
A4B
  8
0
 62
     7
 10
104.1629192403405
 20
158.2089094073146
 30
0.0
  0
VERTEX
  5
A4C
  8
0
 62
     7
 10
104.1629192403405
 20
158.2089094073146
 30
0.0
  0
VERTEX
  5
A4D
  8
0
 62
     7
 10
104.1629192403405
 20
158.2089094073146
 30
0.0
  0
VERTEX
  5
A4E
  8
0
 62
     7
 10
104.1629192403405
 20
158.2089094073146
 30
0.0
  0
VERTEX
  5
A4F
  8
0
 62
     7
 10
104.1629192403405
 20
158.2089094073146
 30
0.0
  0
VERTEX
  5
A50
  8
0
 62
     7
 10
104.1629192403405
 20
158.2089094073146
 30
0.0
  0
VERTEX
  5
A51
  8
0
 62
     7
 10
104.1629192403405
 20
158.2089094073146
 30
0.0
  0
VERTEX
  5
A52
  8
0
 62
     7
 10
104.1629192403405
 20
158.2089094073146
 30
0.0
  0
VERTEX
  5
A53
  8
0
 62
     7
 10
104.1629192403405
 20
158.2089094073146
 30
0.0
  0
VERTEX
  5
A54
  8
0
 62
     7
 10
104.1629192403405
 20
158.2089094073146
 30
0.0
  0
VERTEX
  5
A55
  8
0
 62
     7
 10
104.1629192403405
 20
158.2089094073146
 30
0.0
  0
VERTEX
  5
A56
  8
0
 62
     7
 10
104.1629192403405
 20
158.2089094073146
 30
0.0
  0
VERTEX
  5
A57
  8
0
 62
     7
 10
104.1629192403405
 20
158.2089094073146
 30
0.0
  0
VERTEX
  5
A58
  8
0
 62
     7
 10
104.1629192403405
 20
158.2089094073146
 30
0.0
  0
VERTEX
  5
A59
  8
0
 62
     7
 10
104.1629192403405
 20
158.2089094073146
 30
0.0
  0
SEQEND
  5
C14
  8
0
 62
     7
  0
ENDBLK
  5
414
  8
0
  0
BLOCK
  8
0
  2
BLOCK_80
 70
     0
 10
0.0
 20
0.0
 30
0.0
  3
BLOCK_80
  1

  0
POLYLINE
  5
41A
  8
0
 62
     7
 66
     1
 10
0.0
 20
0.0
 30
0.0
 70
     1
  0
VERTEX
  5
A5A
  8
0
 62
     7
 10
13.67541924034058
 20
124.8714094073149
 30
0.0
  0
VERTEX
  5
A5B
  8
0
 62
     7
 10
13.67841837047803
 20
124.9604152092924
 30
0.0
  0
VERTEX
  5
A5C
  8
0
 62
     7
 10
13.68728668433265
 20
125.0478113539576
 30
0.0
  0
VERTEX
  5
A5D
  8
0
 62
     7
 10
13.70183056706786
 20
125.1334042264738
 30
0.0
  0
VERTEX
  5
A5E
  8
0
 62
     7
 10
13.72185640384709
 20
125.2170002120044
 30
0.0
  0
VERTEX
  5
A5F
  8
0
 62
     7
 10
13.74717057983375
 20
125.2984056957128
 30
0.0
  0
VERTEX
  5
A60
  8
0
 62
     7
 10
13.77757948019127
 20
125.3774270627626
 30
0.0
  0
VERTEX
  5
A61
  8
0
 62
     7
 10
13.81288949008305
 20
125.453870698317
 30
0.0
  0
VERTEX
  5
A62
  8
0
 62
     7
 10
13.85290699467253
 20
125.5275429875395
 30
0.0
  0
VERTEX
  5
A63
  8
0
 62
     7
 10
13.89743837912312
 20
125.5982503155936
 30
0.0
  0
VERTEX
  5
A64
  8
0
 62
     7
 10
13.94629002859824
 20
125.6657990676427
 30
0.0
  0
VERTEX
  5
A65
  8
0
 62
     7
 10
13.99926832826131
 20
125.7299956288501
 30
0.0
  0
VERTEX
  5
A66
  8
0
 62
     7
 10
14.05617966327575
 20
125.7906463843793
 30
0.0
  0
VERTEX
  5
A67
  8
0
 62
     7
 10
14.11683041880499
 20
125.8475577193937
 30
0.0
  0
VERTEX
  5
A68
  8
0
 62
     7
 10
14.18102698001243
 20
125.9005360190568
 30
0.0
  0
VERTEX
  5
A69
  8
0
 62
     7
 10
14.2485757320615
 20
125.9493876685319
 30
0.0
  0
VERTEX
  5
A6A
  8
0
 62
     7
 10
14.31928306011562
 20
125.9939190529825
 30
0.0
  0
VERTEX
  5
A6B
  8
0
 62
     7
 10
14.39295534933821
 20
126.033936557572
 30
0.0
  0
VERTEX
  5
A6C
  8
0
 62
     7
 10
14.46939898489269
 20
126.0692465674637
 30
0.0
  0
VERTEX
  5
A6D
  8
0
 62
     7
 10
14.54842035194248
 20
126.0996554678212
 30
0.0
  0
VERTEX
  5
A6E
  8
0
 62
     7
 10
14.62982583565099
 20
126.1249696438079
 30
0.0
  0
VERTEX
  5
A6F
  8
0
 62
     7
 10
14.71342182118165
 20
126.1449954805871
 30
0.0
  0
VERTEX
  5
A70
  8
0
 62
     7
 10
14.79901469369788
 20
126.1595393633224
 30
0.0
  0
VERTEX
  5
A71
  8
0
 62
     7
 10
14.8864108383631
 20
126.168407677177
 30
0.0
  0
VERTEX
  5
A72
  8
0
 62
     7
 10
14.97541664034072
 20
126.1714068073144
 30
0.0
  0
VERTEX
  5
A73
  8
0
 62
     7
 10
15.06442244231834
 20
126.168407677177
 30
0.0
  0
VERTEX
  5
A74
  8
0
 62
     7
 10
15.15181858698355
 20
126.1595393633223
 30
0.0
  0
VERTEX
  5
A75
  8
0
 62
     7
 10
15.23741145949977
 20
126.1449954805871
 30
0.0
  0
VERTEX
  5
A76
  8
0
 62
     7
 10
15.32100744503042
 20
126.1249696438079
 30
0.0
  0
VERTEX
  5
A77
  8
0
 62
     7
 10
15.40241292873892
 20
126.0996554678212
 30
0.0
  0
VERTEX
  5
A78
  8
0
 62
     7
 10
15.48143429578869
 20
126.0692465674637
 30
0.0
  0
VERTEX
  5
A79
  8
0
 62
     7
 10
15.55787793134315
 20
126.0339365575719
 30
0.0
  0
VERTEX
  5
A7A
  8
0
 62
     7
 10
15.63155022056573
 20
125.9939190529825
 30
0.0
  0
VERTEX
  5
A7B
  8
0
 62
     7
 10
15.70225754861983
 20
125.9493876685319
 30
0.0
  0
VERTEX
  5
A7C
  8
0
 62
     7
 10
15.76980630066889
 20
125.9005360190568
 30
0.0
  0
VERTEX
  5
A7D
  8
0
 62
     7
 10
15.83400286187631
 20
125.8475577193937
 30
0.0
  0
VERTEX
  5
A7E
  8
0
 62
     7
 10
15.89465361740552
 20
125.7906463843793
 30
0.0
  0
VERTEX
  5
A7F
  8
0
 62
     7
 10
15.95156495241994
 20
125.7299956288501
 30
0.0
  0
VERTEX
  5
A80
  8
0
 62
     7
 10
16.00454325208299
 20
125.6657990676427
 30
0.0
  0
VERTEX
  5
A81
  8
0
 62
     7
 10
16.05339490155809
 20
125.5982503155936
 30
0.0
  0
VERTEX
  5
A82
  8
0
 62
     7
 10
16.09792628600866
 20
125.5275429875396
 30
0.0
  0
VERTEX
  5
A83
  8
0
 62
     7
 10
16.13794379059812
 20
125.453870698317
 30
0.0
  0
VERTEX
  5
A84
  8
0
 62
     7
 10
16.17325380048989
 20
125.3774270627626
 30
0.0
  0
VERTEX
  5
A85
  8
0
 62
     7
 10
16.2036627008474
 20
125.2984056957128
 30
0.0
  0
VERTEX
  5
A86
  8
0
 62
     7
 10
16.22897687683404
 20
125.2170002120044
 30
0.0
  0
VERTEX
  5
A87
  8
0
 62
     7
 10
16.24900271361326
 20
125.1334042264738
 30
0.0
  0
VERTEX
  5
A88
  8
0
 62
     7
 10
16.26354659634847
 20
125.0478113539576
 30
0.0
  0
VERTEX
  5
A89
  8
0
 62
     7
 10
16.27241491020308
 20
124.9604152092925
 30
0.0
  0
VERTEX
  5
A8A
  8
0
 62
     7
 10
16.27541404034053
 20
124.8714094073149
 30
0.0
  0
VERTEX
  5
A8B
  8
0
 62
     7
 10
16.27241491020308
 20
124.7824036053373
 30
0.0
  0
VERTEX
  5
A8C
  8
0
 62
     7
 10
16.26354659634847
 20
124.6950074606721
 30
0.0
  0
VERTEX
  5
A8D
  8
0
 62
     7
 10
16.24900271361326
 20
124.6094145881558
 30
0.0
  0
VERTEX
  5
A8E
  8
0
 62
     7
 10
16.22897687683404
 20
124.5258186026252
 30
0.0
  0
VERTEX
  5
A8F
  8
0
 62
     7
 10
16.20366270084739
 20
124.4444131189167
 30
0.0
  0
VERTEX
  5
A90
  8
0
 62
     7
 10
16.17325380048989
 20
124.3653917518669
 30
0.0
  0
VERTEX
  5
A91
  8
0
 62
     7
 10
16.13794379059812
 20
124.2889481163124
 30
0.0
  0
VERTEX
  5
A92
  8
0
 62
     7
 10
16.09792628600866
 20
124.2152758270898
 30
0.0
  0
VERTEX
  5
A93
  8
0
 62
     7
 10
16.05339490155809
 20
124.1445684990357
 30
0.0
  0
VERTEX
  5
A94
  8
0
 62
     7
 10
16.00454325208299
 20
124.0770197469866
 30
0.0
  0
VERTEX
  5
A95
  8
0
 62
     7
 10
15.95156495241994
 20
124.0128231857792
 30
0.0
  0
VERTEX
  5
A96
  8
0
 62
     7
 10
15.89465361740552
 20
123.95217243025
 30
0.0
  0
VERTEX
  5
A97
  8
0
 62
     7
 10
15.8340028618763
 20
123.8952610952355
 30
0.0
  0
VERTEX
  5
A98
  8
0
 62
     7
 10
15.76980630066888
 20
123.8422827955725
 30
0.0
  0
VERTEX
  5
A99
  8
0
 62
     7
 10
15.70225754861983
 20
123.7934311460973
 30
0.0
  0
VERTEX
  5
A9A
  8
0
 62
     7
 10
15.63155022056573
 20
123.7488997616468
 30
0.0
  0
VERTEX
  5
A9B
  8
0
 62
     7
 10
15.55787793134316
 20
123.7088822570573
 30
0.0
  0
VERTEX
  5
A9C
  8
0
 62
     7
 10
15.4814342957887
 20
123.6735722471655
 30
0.0
  0
VERTEX
  5
A9D
  8
0
 62
     7
 10
15.40241292873893
 20
123.643163346808
 30
0.0
  0
VERTEX
  5
A9E
  8
0
 62
     7
 10
15.32100744503042
 20
123.6178491708213
 30
0.0
  0
VERTEX
  5
A9F
  8
0
 62
     7
 10
15.23741145949977
 20
123.5978233340421
 30
0.0
  0
VERTEX
  5
AA0
  8
0
 62
     7
 10
15.15181858698355
 20
123.5832794513069
 30
0.0
  0
VERTEX
  5
AA1
  8
0
 62
     7
 10
15.06442244231834
 20
123.5744111374523
 30
0.0
  0
VERTEX
  5
AA2
  8
0
 62
     7
 10
14.97541664034073
 20
123.5714120073148
 30
0.0
  0
VERTEX
  5
AA3
  8
0
 62
     7
 10
14.8864108383631
 20
123.5744111374523
 30
0.0
  0
VERTEX
  5
AA4
  8
0
 62
     7
 10
14.79901469369789
 20
123.5832794513069
 30
0.0
  0
VERTEX
  5
AA5
  8
0
 62
     7
 10
14.71342182118166
 20
123.5978233340421
 30
0.0
  0
VERTEX
  5
AA6
  8
0
 62
     7
 10
14.629825835651
 20
123.6178491708213
 30
0.0
  0
VERTEX
  5
AA7
  8
0
 62
     7
 10
14.54842035194249
 20
123.643163346808
 30
0.0
  0
VERTEX
  5
AA8
  8
0
 62
     7
 10
14.4693989848927
 20
123.6735722471655
 30
0.0
  0
VERTEX
  5
AA9
  8
0
 62
     7
 10
14.39295534933822
 20
123.7088822570573
 30
0.0
  0
VERTEX
  5
AAA
  8
0
 62
     7
 10
14.31928306011563
 20
123.7488997616467
 30
0.0
  0
VERTEX
  5
AAB
  8
0
 62
     7
 10
14.24857573206151
 20
123.7934311460973
 30
0.0
  0
VERTEX
  5
AAC
  8
0
 62
     7
 10
14.18102698001244
 20
123.8422827955724
 30
0.0
  0
VERTEX
  5
AAD
  8
0
 62
     7
 10
14.11683041880499
 20
123.8952610952355
 30
0.0
  0
VERTEX
  5
AAE
  8
0
 62
     7
 10
14.05617966327576
 20
123.95217243025
 30
0.0
  0
VERTEX
  5
AAF
  8
0
 62
     7
 10
13.99926832826132
 20
124.0128231857792
 30
0.0
  0
VERTEX
  5
AB0
  8
0
 62
     7
 10
13.94629002859825
 20
124.0770197469866
 30
0.0
  0
VERTEX
  5
AB1
  8
0
 62
     7
 10
13.89743837912313
 20
124.1445684990357
 30
0.0
  0
VERTEX
  5
AB2
  8
0
 62
     7
 10
13.85290699467253
 20
124.2152758270898
 30
0.0
  0
VERTEX
  5
AB3
  8
0
 62
     7
 10
13.81288949008306
 20
124.2889481163124
 30
0.0
  0
VERTEX
  5
AB4
  8
0
 62
     7
 10
13.77757948019127
 20
124.3653917518669
 30
0.0
  0
VERTEX
  5
AB5
  8
0
 62
     7
 10
13.74717057983375
 20
124.4444131189167
 30
0.0
  0
VERTEX
  5
AB6
  8
0
 62
     7
 10
13.7218564038471
 20
124.5258186026252
 30
0.0
  0
VERTEX
  5
AB7
  8
0
 62
     7
 10
13.70183056706787
 20
124.6094145881558
 30
0.0
  0
VERTEX
  5
AB8
  8
0
 62
     7
 10
13.68728668433265
 20
124.695007460672
 30
0.0
  0
VERTEX
  5
AB9
  8
0
 62
     7
 10
13.67841837047803
 20
124.7824036053373
 30
0.0
  0
VERTEX
  5
ABA
  8
0
 62
     7
 10
13.67541924034058
 20
124.8714094073149
 30
0.0
  0
VERTEX
  5
ABB
  8
0
 62
     7
 10
13.67541924034058
 20
124.8714094073149
 30
0.0
  0
VERTEX
  5
ABC
  8
0
 62
     7
 10
13.67541924034058
 20
124.8714094073149
 30
0.0
  0
VERTEX
  5
ABD
  8
0
 62
     7
 10
13.67541924034058
 20
124.8714094073149
 30
0.0
  0
VERTEX
  5
ABE
  8
0
 62
     7
 10
13.67541924034058
 20
124.8714094073149
 30
0.0
  0
VERTEX
  5
ABF
  8
0
 62
     7
 10
13.67541924034058
 20
124.8714094073149
 30
0.0
  0
VERTEX
  5
AC0
  8
0
 62
     7
 10
13.67541924034058
 20
124.8714094073149
 30
0.0
  0
VERTEX
  5
AC1
  8
0
 62
     7
 10
13.67541924034058
 20
124.8714094073149
 30
0.0
  0
VERTEX
  5
AC2
  8
0
 62
     7
 10
13.67541924034058
 20
124.8714094073149
 30
0.0
  0
VERTEX
  5
AC3
  8
0
 62
     7
 10
13.67541924034058
 20
124.8714094073149
 30
0.0
  0
VERTEX
  5
AC4
  8
0
 62
     7
 10
13.67541924034058
 20
124.8714094073149
 30
0.0
  0
VERTEX
  5
AC5
  8
0
 62
     7
 10
13.67541924034058
 20
124.8714094073149
 30
0.0
  0
VERTEX
  5
AC6
  8
0
 62
     7
 10
13.67541924034058
 20
124.8714094073149
 30
0.0
  0
VERTEX
  5
AC7
  8
0
 62
     7
 10
13.67541924034058
 20
124.8714094073149
 30
0.0
  0
VERTEX
  5
AC8
  8
0
 62
     7
 10
13.67541924034058
 20
124.8714094073149
 30
0.0
  0
VERTEX
  5
AC9
  8
0
 62
     7
 10
13.67541924034058
 20
124.8714094073149
 30
0.0
  0
VERTEX
  5
ACA
  8
0
 62
     7
 10
13.67541924034058
 20
124.8714094073149
 30
0.0
  0
VERTEX
  5
ACB
  8
0
 62
     7
 10
13.67541924034058
 20
124.8714094073149
 30
0.0
  0
VERTEX
  5
ACC
  8
0
 62
     7
 10
13.67541924034058
 20
124.8714094073149
 30
0.0
  0
VERTEX
  5
ACD
  8
0
 62
     7
 10
13.67541924034058
 20
124.8714094073149
 30
0.0
  0
VERTEX
  5
ACE
  8
0
 62
     7
 10
13.67541924034058
 20
124.8714094073149
 30
0.0
  0
VERTEX
  5
ACF
  8
0
 62
     7
 10
13.67541924034058
 20
124.8714094073149
 30
0.0
  0
VERTEX
  5
AD0
  8
0
 62
     7
 10
13.67541924034058
 20
124.8714094073149
 30
0.0
  0
VERTEX
  5
AD1
  8
0
 62
     7
 10
13.67541924034058
 20
124.8714094073149
 30
0.0
  0
SEQEND
  5
C15
  8
0
 62
     7
  0
ENDBLK
  5
419
  8
0
  0
BLOCK
  8
0
  2
BLOCK_81
 70
     0
 10
0.0
 20
0.0
 30
0.0
  3
BLOCK_81
  1

  0
POLYLINE
  5
41F
  8
0
 62
     7
 66
     1
 10
0.0
 20
0.0
 30
0.0
 70
     1
  0
VERTEX
  5
AD2
  8
0
 62
     7
 10
-29.18708075965954
 20
177.2589094073145
 30
0.0
  0
VERTEX
  5
AD3
  8
0
 62
     7
 10
-29.18408162952209
 20
177.3479152092921
 30
0.0
  0
VERTEX
  5
AD4
  8
0
 62
     7
 10
-29.17521331566747
 20
177.4353113539573
 30
0.0
  0
VERTEX
  5
AD5
  8
0
 62
     7
 10
-29.16066943293226
 20
177.5209042264735
 30
0.0
  0
VERTEX
  5
AD6
  8
0
 62
     7
 10
-29.14064359615303
 20
177.6045002120042
 30
0.0
  0
VERTEX
  5
AD7
  8
0
 62
     7
 10
-29.11532942016636
 20
177.6859056957127
 30
0.0
  0
VERTEX
  5
AD8
  8
0
 62
     7
 10
-29.08492051980885
 20
177.7649270627625
 30
0.0
  0
VERTEX
  5
AD9
  8
0
 62
     7
 10
-29.04961050991707
 20
177.841370698317
 30
0.0
  0
VERTEX
  5
ADA
  8
0
 62
     7
 10
-29.00959300532758
 20
177.9150429875395
 30
0.0
  0
VERTEX
  5
ADB
  8
0
 62
     7
 10
-28.96506162087699
 20
177.9857503155937
 30
0.0
  0
VERTEX
  5
ADC
  8
0
 62
     7
 10
-28.91620997140188
 20
178.0532990676427
 30
0.0
  0
VERTEX
  5
ADD
  8
0
 62
     7
 10
-28.8632316717388
 20
178.1174956288502
 30
0.0
  0
VERTEX
  5
ADE
  8
0
 62
     7
 10
-28.80632033672436
 20
178.1781463843794
 30
0.0
  0
VERTEX
  5
ADF
  8
0
 62
     7
 10
-28.74566958119512
 20
178.2350577193938
 30
0.0
  0
VERTEX
  5
AE0
  8
0
 62
     7
 10
-28.68147301998768
 20
178.2880360190569
 30
0.0
  0
VERTEX
  5
AE1
  8
0
 62
     7
 10
-28.61392426793861
 20
178.336887668532
 30
0.0
  0
VERTEX
  5
AE2
  8
0
 62
     7
 10
-28.54321693988449
 20
178.3814190529826
 30
0.0
  0
VERTEX
  5
AE3
  8
0
 62
     7
 10
-28.4695446506619
 20
178.4214365575721
 30
0.0
  0
VERTEX
  5
AE4
  8
0
 62
     7
 10
-28.39310101510742
 20
178.4567465674639
 30
0.0
  0
VERTEX
  5
AE5
  8
0
 62
     7
 10
-28.31407964805763
 20
178.4871554678214
 30
0.0
  0
VERTEX
  5
AE6
  8
0
 62
     7
 10
-28.23267416434912
 20
178.5124696438081
 30
0.0
  0
VERTEX
  5
AE7
  8
0
 62
     7
 10
-28.14907817881846
 20
178.5324954805873
 30
0.0
  0
VERTEX
  5
AE8
  8
0
 62
     7
 10
-28.06348530630223
 20
178.5470393633225
 30
0.0
  0
VERTEX
  5
AE9
  8
0
 62
     7
 10
-27.97608916163701
 20
178.5559076771771
 30
0.0
  0
VERTEX
  5
AEA
  8
0
 62
     7
 10
-27.88708335965939
 20
178.5589068073146
 30
0.0
  0
VERTEX
  5
AEB
  8
0
 62
     7
 10
-27.79807755768178
 20
178.5559076771772
 30
0.0
  0
VERTEX
  5
AEC
  8
0
 62
     7
 10
-27.71068141301656
 20
178.5470393633226
 30
0.0
  0
VERTEX
  5
AED
  8
0
 62
     7
 10
-27.62508854050033
 20
178.5324954805873
 30
0.0
  0
VERTEX
  5
AEE
  8
0
 62
     7
 10
-27.54149255496967
 20
178.5124696438081
 30
0.0
  0
VERTEX
  5
AEF
  8
0
 62
     7
 10
-27.46008707126115
 20
178.4871554678214
 30
0.0
  0
VERTEX
  5
AF0
  8
0
 62
     7
 10
-27.38106570421137
 20
178.4567465674639
 30
0.0
  0
VERTEX
  5
AF1
  8
0
 62
     7
 10
-27.30462206865688
 20
178.4214365575721
 30
0.0
  0
VERTEX
  5
AF2
  8
0
 62
     7
 10
-27.2309497794343
 20
178.3814190529827
 30
0.0
  0
VERTEX
  5
AF3
  8
0
 62
     7
 10
-27.16024245138017
 20
178.336887668532
 30
0.0
  0
VERTEX
  5
AF4
  8
0
 62
     7
 10
-27.09269369933111
 20
178.2880360190569
 30
0.0
  0
VERTEX
  5
AF5
  8
0
 62
     7
 10
-27.02849713812366
 20
178.2350577193939
 30
0.0
  0
VERTEX
  5
AF6
  8
0
 62
     7
 10
-26.96784638259443
 20
178.1781463843794
 30
0.0
  0
VERTEX
  5
AF7
  8
0
 62
     7
 10
-26.91093504757999
 20
178.1174956288502
 30
0.0
  0
VERTEX
  5
AF8
  8
0
 62
     7
 10
-26.85795674791692
 20
178.0532990676427
 30
0.0
  0
VERTEX
  5
AF9
  8
0
 62
     7
 10
-26.8091050984418
 20
177.9857503155936
 30
0.0
  0
VERTEX
  5
AFA
  8
0
 62
     7
 10
-26.76457371399121
 20
177.9150429875395
 30
0.0
  0
VERTEX
  5
AFB
  8
0
 62
     7
 10
-26.72455620940173
 20
177.8413706983169
 30
0.0
  0
VERTEX
  5
AFC
  8
0
 62
     7
 10
-26.68924619950995
 20
177.7649270627625
 30
0.0
  0
VERTEX
  5
AFD
  8
0
 62
     7
 10
-26.65883729915243
 20
177.6859056957127
 30
0.0
  0
VERTEX
  5
AFE
  8
0
 62
     7
 10
-26.63352312316577
 20
177.6045002120042
 30
0.0
  0
VERTEX
  5
AFF
  8
0
 62
     7
 10
-26.61349728638654
 20
177.5209042264735
 30
0.0
  0
VERTEX
  5
B00
  8
0
 62
     7
 10
-26.59895340365133
 20
177.4353113539573
 30
0.0
  0
VERTEX
  5
B01
  8
0
 62
     7
 10
-26.59008508979671
 20
177.3479152092921
 30
0.0
  0
VERTEX
  5
B02
  8
0
 62
     7
 10
-26.58708595965926
 20
177.2589094073145
 30
0.0
  0
VERTEX
  5
B03
  8
0
 62
     7
 10
-26.5900850897967
 20
177.1699036053369
 30
0.0
  0
VERTEX
  5
B04
  8
0
 62
     7
 10
-26.59895340365133
 20
177.0825074606716
 30
0.0
  0
VERTEX
  5
B05
  8
0
 62
     7
 10
-26.61349728638654
 20
176.9969145881554
 30
0.0
  0
VERTEX
  5
B06
  8
0
 62
     7
 10
-26.63352312316577
 20
176.9133186026248
 30
0.0
  0
VERTEX
  5
B07
  8
0
 62
     7
 10
-26.65883729915243
 20
176.8319131189162
 30
0.0
  0
VERTEX
  5
B08
  8
0
 62
     7
 10
-26.68924619950995
 20
176.7528917518665
 30
0.0
  0
VERTEX
  5
B09
  8
0
 62
     7
 10
-26.72455620940173
 20
176.676448116312
 30
0.0
  0
VERTEX
  5
B0A
  8
0
 62
     7
 10
-26.76457371399122
 20
176.6027758270895
 30
0.0
  0
VERTEX
  5
B0B
  8
0
 62
     7
 10
-26.8091050984418
 20
176.5320684990353
 30
0.0
  0
VERTEX
  5
B0C
  8
0
 62
     7
 10
-26.85795674791692
 20
176.4645197469863
 30
0.0
  0
VERTEX
  5
B0D
  8
0
 62
     7
 10
-26.91093504757999
 20
176.4003231857788
 30
0.0
  0
VERTEX
  5
B0E
  8
0
 62
     7
 10
-26.96784638259443
 20
176.3396724302496
 30
0.0
  0
VERTEX
  5
B0F
  8
0
 62
     7
 10
-27.02849713812367
 20
176.2827610952352
 30
0.0
  0
VERTEX
  5
B10
  8
0
 62
     7
 10
-27.0926936993311
 20
176.2297827955721
 30
0.0
  0
VERTEX
  5
B11
  8
0
 62
     7
 10
-27.16024245138018
 20
176.1809311460971
 30
0.0
  0
VERTEX
  5
B12
  8
0
 62
     7
 10
-27.2309497794343
 20
176.1363997616465
 30
0.0
  0
VERTEX
  5
B13
  8
0
 62
     7
 10
-27.30462206865688
 20
176.096382257057
 30
0.0
  0
VERTEX
  5
B14
  8
0
 62
     7
 10
-27.38106570421137
 20
176.0610722471652
 30
0.0
  0
VERTEX
  5
B15
  8
0
 62
     7
 10
-27.46008707126116
 20
176.0306633468078
 30
0.0
  0
VERTEX
  5
B16
  8
0
 62
     7
 10
-27.54149255496966
 20
176.0053491708211
 30
0.0
  0
VERTEX
  5
B17
  8
0
 62
     7
 10
-27.62508854050032
 20
175.9853233340419
 30
0.0
  0
VERTEX
  5
B18
  8
0
 62
     7
 10
-27.71068141301655
 20
175.9707794513067
 30
0.0
  0
VERTEX
  5
B19
  8
0
 62
     7
 10
-27.79807755768176
 20
175.9619111374521
 30
0.0
  0
VERTEX
  5
B1A
  8
0
 62
     7
 10
-27.88708335965938
 20
175.9589120073146
 30
0.0
  0
VERTEX
  5
B1B
  8
0
 62
     7
 10
-27.97608916163701
 20
175.9619111374521
 30
0.0
  0
VERTEX
  5
B1C
  8
0
 62
     7
 10
-28.06348530630222
 20
175.9707794513066
 30
0.0
  0
VERTEX
  5
B1D
  8
0
 62
     7
 10
-28.14907817881845
 20
175.9853233340419
 30
0.0
  0
VERTEX
  5
B1E
  8
0
 62
     7
 10
-28.23267416434911
 20
176.0053491708211
 30
0.0
  0
VERTEX
  5
B1F
  8
0
 62
     7
 10
-28.31407964805762
 20
176.0306633468077
 30
0.0
  0
VERTEX
  5
B20
  8
0
 62
     7
 10
-28.39310101510741
 20
176.0610722471653
 30
0.0
  0
VERTEX
  5
B21
  8
0
 62
     7
 10
-28.46954465066189
 20
176.096382257057
 30
0.0
  0
VERTEX
  5
B22
  8
0
 62
     7
 10
-28.54321693988448
 20
176.1363997616465
 30
0.0
  0
VERTEX
  5
B23
  8
0
 62
     7
 10
-28.6139242679386
 20
176.1809311460971
 30
0.0
  0
VERTEX
  5
B24
  8
0
 62
     7
 10
-28.68147301998767
 20
176.2297827955722
 30
0.0
  0
VERTEX
  5
B25
  8
0
 62
     7
 10
-28.74566958119512
 20
176.2827610952352
 30
0.0
  0
VERTEX
  5
B26
  8
0
 62
     7
 10
-28.80632033672435
 20
176.3396724302496
 30
0.0
  0
VERTEX
  5
B27
  8
0
 62
     7
 10
-28.8632316717388
 20
176.4003231857788
 30
0.0
  0
VERTEX
  5
B28
  8
0
 62
     7
 10
-28.91620997140187
 20
176.4645197469862
 30
0.0
  0
VERTEX
  5
B29
  8
0
 62
     7
 10
-28.96506162087699
 20
176.5320684990353
 30
0.0
  0
VERTEX
  5
B2A
  8
0
 62
     7
 10
-29.00959300532758
 20
176.6027758270894
 30
0.0
  0
VERTEX
  5
B2B
  8
0
 62
     7
 10
-29.04961050991706
 20
176.676448116312
 30
0.0
  0
VERTEX
  5
B2C
  8
0
 62
     7
 10
-29.08492051980885
 20
176.7528917518665
 30
0.0
  0
VERTEX
  5
B2D
  8
0
 62
     7
 10
-29.11532942016636
 20
176.8319131189162
 30
0.0
  0
VERTEX
  5
B2E
  8
0
 62
     7
 10
-29.14064359615303
 20
176.9133186026247
 30
0.0
  0
VERTEX
  5
B2F
  8
0
 62
     7
 10
-29.16066943293225
 20
176.9969145881554
 30
0.0
  0
VERTEX
  5
B30
  8
0
 62
     7
 10
-29.17521331566747
 20
177.0825074606716
 30
0.0
  0
VERTEX
  5
B31
  8
0
 62
     7
 10
-29.18408162952209
 20
177.1699036053369
 30
0.0
  0
VERTEX
  5
B32
  8
0
 62
     7
 10
-29.18708075965954
 20
177.2589094073145
 30
0.0
  0
VERTEX
  5
B33
  8
0
 62
     7
 10
-29.18708075965954
 20
177.2589094073145
 30
0.0
  0
VERTEX
  5
B34
  8
0
 62
     7
 10
-29.18708075965954
 20
177.2589094073145
 30
0.0
  0
VERTEX
  5
B35
  8
0
 62
     7
 10
-29.18708075965954
 20
177.2589094073145
 30
0.0
  0
VERTEX
  5
B36
  8
0
 62
     7
 10
-29.18708075965955
 20
177.2589094073145
 30
0.0
  0
VERTEX
  5
B37
  8
0
 62
     7
 10
-29.18708075965954
 20
177.2589094073145
 30
0.0
  0
VERTEX
  5
B38
  8
0
 62
     7
 10
-29.18708075965954
 20
177.2589094073145
 30
0.0
  0
VERTEX
  5
B39
  8
0
 62
     7
 10
-29.18708075965954
 20
177.2589094073145
 30
0.0
  0
VERTEX
  5
B3A
  8
0
 62
     7
 10
-29.18708075965955
 20
177.2589094073145
 30
0.0
  0
VERTEX
  5
B3B
  8
0
 62
     7
 10
-29.18708075965954
 20
177.2589094073145
 30
0.0
  0
VERTEX
  5
B3C
  8
0
 62
     7
 10
-29.18708075965954
 20
177.2589094073145
 30
0.0
  0
VERTEX
  5
B3D
  8
0
 62
     7
 10
-29.18708075965954
 20
177.2589094073145
 30
0.0
  0
VERTEX
  5
B3E
  8
0
 62
     7
 10
-29.18708075965954
 20
177.2589094073145
 30
0.0
  0
VERTEX
  5
B3F
  8
0
 62
     7
 10
-29.18708075965954
 20
177.2589094073145
 30
0.0
  0
VERTEX
  5
B40
  8
0
 62
     7
 10
-29.18708075965954
 20
177.2589094073145
 30
0.0
  0
VERTEX
  5
B41
  8
0
 62
     7
 10
-29.18708075965954
 20
177.2589094073145
 30
0.0
  0
VERTEX
  5
B42
  8
0
 62
     7
 10
-29.18708075965954
 20
177.2589094073145
 30
0.0
  0
VERTEX
  5
B43
  8
0
 62
     7
 10
-29.18708075965954
 20
177.2589094073145
 30
0.0
  0
VERTEX
  5
B44
  8
0
 62
     7
 10
-29.18708075965954
 20
177.2589094073145
 30
0.0
  0
VERTEX
  5
B45
  8
0
 62
     7
 10
-29.18708075965954
 20
177.2589094073145
 30
0.0
  0
VERTEX
  5
B46
  8
0
 62
     7
 10
-29.18708075965954
 20
177.2589094073145
 30
0.0
  0
VERTEX
  5
B47
  8
0
 62
     7
 10
-29.18708075965954
 20
177.2589094073145
 30
0.0
  0
VERTEX
  5
B48
  8
0
 62
     7
 10
-29.18708075965954
 20
177.2589094073145
 30
0.0
  0
VERTEX
  5
B49
  8
0
 62
     7
 10
-29.18708075965954
 20
177.2589094073145
 30
0.0
  0
SEQEND
  5
C16
  8
0
 62
     7
  0
ENDBLK
  5
41E
  8
0
  0
BLOCK
  8
0
  2
BLOCK_82
 70
     0
 10
0.0
 20
0.0
 30
0.0
  3
BLOCK_82
  1

  0
POLYLINE
  5
424
  8
0
 62
     7
 66
     1
 10
0.0
 20
0.0
 30
0.0
 70
     1
  0
VERTEX
  5
B4A
  8
0
 62
     7
 10
-36.33083075965943
 20
103.4401594073145
 30
0.0
  0
VERTEX
  5
B4B
  8
0
 62
     7
 10
-36.32783162952199
 20
103.5291652092921
 30
0.0
  0
VERTEX
  5
B4C
  8
0
 62
     7
 10
-36.31896331566737
 20
103.6165613539574
 30
0.0
  0
VERTEX
  5
B4D
  8
0
 62
     7
 10
-36.30441943293214
 20
103.7021542264735
 30
0.0
  0
VERTEX
  5
B4E
  8
0
 62
     7
 10
-36.28439359615292
 20
103.7857502120042
 30
0.0
  0
VERTEX
  5
B4F
  8
0
 62
     7
 10
-36.25907942016626
 20
103.8671556957127
 30
0.0
  0
VERTEX
  5
B50
  8
0
 62
     7
 10
-36.22867051980874
 20
103.9461770627625
 30
0.0
  0
VERTEX
  5
B51
  8
0
 62
     7
 10
-36.19336050991696
 20
104.022620698317
 30
0.0
  0
VERTEX
  5
B52
  8
0
 62
     7
 10
-36.15334300532748
 20
104.0962929875396
 30
0.0
  0
VERTEX
  5
B53
  8
0
 62
     7
 10
-36.10881162087689
 20
104.1670003155937
 30
0.0
  0
VERTEX
  5
B54
  8
0
 62
     7
 10
-36.05995997140177
 20
104.2345490676428
 30
0.0
  0
VERTEX
  5
B55
  8
0
 62
     7
 10
-36.00698167173869
 20
104.2987456288502
 30
0.0
  0
VERTEX
  5
B56
  8
0
 62
     7
 10
-35.95007033672426
 20
104.3593963843794
 30
0.0
  0
VERTEX
  5
B57
  8
0
 62
     7
 10
-35.88941958119502
 20
104.4163077193939
 30
0.0
  0
VERTEX
  5
B58
  8
0
 62
     7
 10
-35.82522301998758
 20
104.469286019057
 30
0.0
  0
VERTEX
  5
B59
  8
0
 62
     7
 10
-35.75767426793851
 20
104.5181376685321
 30
0.0
  0
VERTEX
  5
B5A
  8
0
 62
     7
 10
-35.68696693988439
 20
104.5626690529827
 30
0.0
  0
VERTEX
  5
B5B
  8
0
 62
     7
 10
-35.6132946506618
 20
104.6026865575721
 30
0.0
  0
VERTEX
  5
B5C
  8
0
 62
     7
 10
-35.53685101510732
 20
104.6379965674639
 30
0.0
  0
VERTEX
  5
B5D
  8
0
 62
     7
 10
-35.45782964805753
 20
104.6684054678214
 30
0.0
  0
VERTEX
  5
B5E
  8
0
 62
     7
 10
-35.37642416434903
 20
104.6937196438081
 30
0.0
  0
VERTEX
  5
B5F
  8
0
 62
     7
 10
-35.29282817881836
 20
104.7137454805873
 30
0.0
  0
VERTEX
  5
B60
  8
0
 62
     7
 10
-35.20723530630214
 20
104.7282893633225
 30
0.0
  0
VERTEX
  5
B61
  8
0
 62
     7
 10
-35.11983916163692
 20
104.7371576771772
 30
0.0
  0
VERTEX
  5
B62
  8
0
 62
     7
 10
-35.0308333596593
 20
104.7401568073146
 30
0.0
  0
VERTEX
  5
B63
  8
0
 62
     7
 10
-34.94182755768168
 20
104.7371576771772
 30
0.0
  0
VERTEX
  5
B64
  8
0
 62
     7
 10
-34.85443141301647
 20
104.7282893633225
 30
0.0
  0
VERTEX
  5
B65
  8
0
 62
     7
 10
-34.76883854050025
 20
104.7137454805873
 30
0.0
  0
VERTEX
  5
B66
  8
0
 62
     7
 10
-34.6852425549696
 20
104.6937196438081
 30
0.0
  0
VERTEX
  5
B67
  8
0
 62
     7
 10
-34.60383707126109
 20
104.6684054678214
 30
0.0
  0
VERTEX
  5
B68
  8
0
 62
     7
 10
-34.52481570421133
 20
104.6379965674639
 30
0.0
  0
VERTEX
  5
B69
  8
0
 62
     7
 10
-34.44837206865687
 20
104.6026865575721
 30
0.0
  0
VERTEX
  5
B6A
  8
0
 62
     7
 10
-34.37469977943431
 20
104.5626690529827
 30
0.0
  0
VERTEX
  5
B6B
  8
0
 62
     7
 10
-34.30399245138019
 20
104.5181376685321
 30
0.0
  0
VERTEX
  5
B6C
  8
0
 62
     7
 10
-34.23644369933115
 20
104.469286019057
 30
0.0
  0
VERTEX
  5
B6D
  8
0
 62
     7
 10
-34.17224713812372
 20
104.4163077193939
 30
0.0
  0
VERTEX
  5
B6E
  8
0
 62
     7
 10
-34.11159638259451
 20
104.3593963843795
 30
0.0
  0
VERTEX
  5
B6F
  8
0
 62
     7
 10
-34.05468504758009
 20
104.2987456288502
 30
0.0
  0
VERTEX
  5
B70
  8
0
 62
     7
 10
-34.00170674791703
 20
104.2345490676428
 30
0.0
  0
VERTEX
  5
B71
  8
0
 62
     7
 10
-33.95285509844193
 20
104.1670003155937
 30
0.0
  0
VERTEX
  5
B72
  8
0
 62
     7
 10
-33.90832371399136
 20
104.0962929875396
 30
0.0
  0
VERTEX
  5
B73
  8
0
 62
     7
 10
-33.86830620940191
 20
104.022620698317
 30
0.0
  0
VERTEX
  5
B74
  8
0
 62
     7
 10
-33.83299619951013
 20
103.9461770627625
 30
0.0
  0
VERTEX
  5
B75
  8
0
 62
     7
 10
-33.80258729915263
 20
103.8671556957127
 30
0.0
  0
VERTEX
  5
B76
  8
0
 62
     7
 10
-33.77727312316598
 20
103.7857502120042
 30
0.0
  0
VERTEX
  5
B77
  8
0
 62
     7
 10
-33.75724728638677
 20
103.7021542264736
 30
0.0
  0
VERTEX
  5
B78
  8
0
 62
     7
 10
-33.74270340365157
 20
103.6165613539574
 30
0.0
  0
VERTEX
  5
B79
  8
0
 62
     7
 10
-33.73383508979695
 20
103.5291652092921
 30
0.0
  0
VERTEX
  5
B7A
  8
0
 62
     7
 10
-33.7308359596595
 20
103.4401594073145
 30
0.0
  0
VERTEX
  5
B7B
  8
0
 62
     7
 10
-33.73383508979694
 20
103.3511536053369
 30
0.0
  0
VERTEX
  5
B7C
  8
0
 62
     7
 10
-33.74270340365157
 20
103.2637574606717
 30
0.0
  0
VERTEX
  5
B7D
  8
0
 62
     7
 10
-33.75724728638677
 20
103.1781645881554
 30
0.0
  0
VERTEX
  5
B7E
  8
0
 62
     7
 10
-33.77727312316599
 20
103.0945686026248
 30
0.0
  0
VERTEX
  5
B7F
  8
0
 62
     7
 10
-33.80258729915263
 20
103.0131631189163
 30
0.0
  0
VERTEX
  5
B80
  8
0
 62
     7
 10
-33.83299619951013
 20
102.9341417518665
 30
0.0
  0
VERTEX
  5
B81
  8
0
 62
     7
 10
-33.8683062094019
 20
102.857698116312
 30
0.0
  0
VERTEX
  5
B82
  8
0
 62
     7
 10
-33.90832371399137
 20
102.7840258270895
 30
0.0
  0
VERTEX
  5
B83
  8
0
 62
     7
 10
-33.95285509844194
 20
102.7133184990353
 30
0.0
  0
VERTEX
  5
B84
  8
0
 62
     7
 10
-34.00170674791703
 20
102.6457697469862
 30
0.0
  0
VERTEX
  5
B85
  8
0
 62
     7
 10
-34.05468504758009
 20
102.5815731857788
 30
0.0
  0
VERTEX
  5
B86
  8
0
 62
     7
 10
-34.11159638259451
 20
102.5209224302496
 30
0.0
  0
VERTEX
  5
B87
  8
0
 62
     7
 10
-34.17224713812372
 20
102.4640110952351
 30
0.0
  0
VERTEX
  5
B88
  8
0
 62
     7
 10
-34.23644369933114
 20
102.4110327955721
 30
0.0
  0
VERTEX
  5
B89
  8
0
 62
     7
 10
-34.30399245138019
 20
102.3621811460969
 30
0.0
  0
VERTEX
  5
B8A
  8
0
 62
     7
 10
-34.37469977943429
 20
102.3176497616464
 30
0.0
  0
VERTEX
  5
B8B
  8
0
 62
     7
 10
-34.44837206865687
 20
102.2776322570569
 30
0.0
  0
VERTEX
  5
B8C
  8
0
 62
     7
 10
-34.52481570421133
 20
102.2423222471651
 30
0.0
  0
VERTEX
  5
B8D
  8
0
 62
     7
 10
-34.6038370712611
 20
102.2119133468076
 30
0.0
  0
VERTEX
  5
B8E
  8
0
 62
     7
 10
-34.68524255496959
 20
102.1865991708209
 30
0.0
  0
VERTEX
  5
B8F
  8
0
 62
     7
 10
-34.76883854050024
 20
102.1665733340417
 30
0.0
  0
VERTEX
  5
B90
  8
0
 62
     7
 10
-34.85443141301646
 20
102.1520294513065
 30
0.0
  0
VERTEX
  5
B91
  8
0
 62
     7
 10
-34.94182755768168
 20
102.1431611374519
 30
0.0
  0
VERTEX
  5
B92
  8
0
 62
     7
 10
-35.03083335965929
 20
102.1401620073144
 30
0.0
  0
VERTEX
  5
B93
  8
0
 62
     7
 10
-35.11983916163691
 20
102.1431611374518
 30
0.0
  0
VERTEX
  5
B94
  8
0
 62
     7
 10
-35.20723530630212
 20
102.1520294513065
 30
0.0
  0
VERTEX
  5
B95
  8
0
 62
     7
 10
-35.29282817881835
 20
102.1665733340417
 30
0.0
  0
VERTEX
  5
B96
  8
0
 62
     7
 10
-35.37642416434901
 20
102.1865991708209
 30
0.0
  0
VERTEX
  5
B97
  8
0
 62
     7
 10
-35.45782964805753
 20
102.2119133468076
 30
0.0
  0
VERTEX
  5
B98
  8
0
 62
     7
 10
-35.53685101510732
 20
102.2423222471651
 30
0.0
  0
VERTEX
  5
B99
  8
0
 62
     7
 10
-35.6132946506618
 20
102.2776322570569
 30
0.0
  0
VERTEX
  5
B9A
  8
0
 62
     7
 10
-35.68696693988439
 20
102.3176497616463
 30
0.0
  0
VERTEX
  5
B9B
  8
0
 62
     7
 10
-35.7576742679385
 20
102.3621811460969
 30
0.0
  0
VERTEX
  5
B9C
  8
0
 62
     7
 10
-35.82522301998758
 20
102.4110327955721
 30
0.0
  0
VERTEX
  5
B9D
  8
0
 62
     7
 10
-35.88941958119502
 20
102.4640110952351
 30
0.0
  0
VERTEX
  5
B9E
  8
0
 62
     7
 10
-35.95007033672425
 20
102.5209224302496
 30
0.0
  0
VERTEX
  5
B9F
  8
0
 62
     7
 10
-36.00698167173869
 20
102.5815731857788
 30
0.0
  0
VERTEX
  5
BA0
  8
0
 62
     7
 10
-36.05995997140177
 20
102.6457697469862
 30
0.0
  0
VERTEX
  5
BA1
  8
0
 62
     7
 10
-36.10881162087689
 20
102.7133184990353
 30
0.0
  0
VERTEX
  5
BA2
  8
0
 62
     7
 10
-36.15334300532748
 20
102.7840258270894
 30
0.0
  0
VERTEX
  5
BA3
  8
0
 62
     7
 10
-36.19336050991696
 20
102.857698116312
 30
0.0
  0
VERTEX
  5
BA4
  8
0
 62
     7
 10
-36.22867051980874
 20
102.9341417518665
 30
0.0
  0
VERTEX
  5
BA5
  8
0
 62
     7
 10
-36.25907942016626
 20
103.0131631189163
 30
0.0
  0
VERTEX
  5
BA6
  8
0
 62
     7
 10
-36.28439359615292
 20
103.0945686026248
 30
0.0
  0
VERTEX
  5
BA7
  8
0
 62
     7
 10
-36.30441943293215
 20
103.1781645881554
 30
0.0
  0
VERTEX
  5
BA8
  8
0
 62
     7
 10
-36.31896331566735
 20
103.2637574606717
 30
0.0
  0
VERTEX
  5
BA9
  8
0
 62
     7
 10
-36.32783162952198
 20
103.3511536053369
 30
0.0
  0
VERTEX
  5
BAA
  8
0
 62
     7
 10
-36.33083075965943
 20
103.4401594073145
 30
0.0
  0
VERTEX
  5
BAB
  8
0
 62
     7
 10
-36.33083075965943
 20
103.4401594073145
 30
0.0
  0
VERTEX
  5
BAC
  8
0
 62
     7
 10
-36.33083075965943
 20
103.4401594073145
 30
0.0
  0
VERTEX
  5
BAD
  8
0
 62
     7
 10
-36.33083075965943
 20
103.4401594073145
 30
0.0
  0
VERTEX
  5
BAE
  8
0
 62
     7
 10
-36.33083075965944
 20
103.4401594073145
 30
0.0
  0
VERTEX
  5
BAF
  8
0
 62
     7
 10
-36.33083075965943
 20
103.4401594073145
 30
0.0
  0
VERTEX
  5
BB0
  8
0
 62
     7
 10
-36.33083075965943
 20
103.4401594073145
 30
0.0
  0
VERTEX
  5
BB1
  8
0
 62
     7
 10
-36.33083075965943
 20
103.4401594073145
 30
0.0
  0
VERTEX
  5
BB2
  8
0
 62
     7
 10
-36.33083075965943
 20
103.4401594073145
 30
0.0
  0
VERTEX
  5
BB3
  8
0
 62
     7
 10
-36.33083075965943
 20
103.4401594073145
 30
0.0
  0
VERTEX
  5
BB4
  8
0
 62
     7
 10
-36.33083075965943
 20
103.4401594073145
 30
0.0
  0
VERTEX
  5
BB5
  8
0
 62
     7
 10
-36.33083075965943
 20
103.4401594073145
 30
0.0
  0
VERTEX
  5
BB6
  8
0
 62
     7
 10
-36.33083075965943
 20
103.4401594073145
 30
0.0
  0
VERTEX
  5
BB7
  8
0
 62
     7
 10
-36.33083075965943
 20
103.4401594073145
 30
0.0
  0
VERTEX
  5
BB8
  8
0
 62
     7
 10
-36.33083075965943
 20
103.4401594073145
 30
0.0
  0
VERTEX
  5
BB9
  8
0
 62
     7
 10
-36.33083075965943
 20
103.4401594073145
 30
0.0
  0
VERTEX
  5
BBA
  8
0
 62
     7
 10
-36.33083075965943
 20
103.4401594073145
 30
0.0
  0
VERTEX
  5
BBB
  8
0
 62
     7
 10
-36.33083075965943
 20
103.4401594073145
 30
0.0
  0
VERTEX
  5
BBC
  8
0
 62
     7
 10
-36.33083075965943
 20
103.4401594073145
 30
0.0
  0
VERTEX
  5
BBD
  8
0
 62
     7
 10
-36.33083075965943
 20
103.4401594073145
 30
0.0
  0
VERTEX
  5
BBE
  8
0
 62
     7
 10
-36.33083075965943
 20
103.4401594073145
 30
0.0
  0
VERTEX
  5
BBF
  8
0
 62
     7
 10
-36.33083075965943
 20
103.4401594073145
 30
0.0
  0
VERTEX
  5
BC0
  8
0
 62
     7
 10
-36.33083075965943
 20
103.4401594073145
 30
0.0
  0
VERTEX
  5
BC1
  8
0
 62
     7
 10
-36.33083075965943
 20
103.4401594073145
 30
0.0
  0
SEQEND
  5
C17
  8
0
 62
     7
  0
ENDBLK
  5
423
  8
0
  0
BLOCK
  8
0
  2
BLOCK_83
 70
     0
 10
0.0
 20
0.0
 30
0.0
  3
BLOCK_83
  1

  0
POLYLINE
  5
429
  8
0
 62
     7
 66
     1
 10
0.0
 20
0.0
 30
0.0
  0
VERTEX
  5
BC2
  8
0
 62
     7
 10
186.2666666403405
 20
149.9539094073144
 30
0.0
  0
VERTEX
  5
BC3
  8
0
 62
     7
 10
191.3466666403409
 20
149.9539094073144
 30
0.0
  0
VERTEX
  5
BC4
  8
0
 62
     7
 10
191.3466666403409
 20
147.4139094073145
 30
0.0
  0
VERTEX
  5
BC5
  8
0
 62
     7
 10
186.2666666403405
 20
147.4139094073145
 30
0.0
  0
VERTEX
  5
BC6
  8
0
 62
     7
 10
186.2666666403405
 20
149.9539094073144
 30
0.0
  0
SEQEND
  5
C18
  8
0
 62
     7
  0
ENDBLK
  5
428
  8
0
  0
ENDSEC
  0
SECTION
  2
ENTITIES
  0
INSERT
  5
41
  8
0
  2
BLOCK_2
 10
0.0
 20
0.0
 30
0.0
  0
INSERT
  5
4C
  8
0
  2
BLOCK_3
 10
0.0
 20
0.0
 30
0.0
  0
INSERT
  5
57
  8
0
  2
BLOCK_4
 10
0.0
 20
0.0
 30
0.0
  0
INSERT
  5
62
  8
0
  2
BLOCK_5
 10
0.0
 20
0.0
 30
0.0
  0
INSERT
  5
6D
  8
0
  2
BLOCK_6
 10
0.0
 20
0.0
 30
0.0
  0
INSERT
  5
78
  8
0
  2
BLOCK_7
 10
0.0
 20
0.0
 30
0.0
  0
INSERT
  5
83
  8
0
  2
BLOCK_8
 10
0.0
 20
0.0
 30
0.0
  0
INSERT
  5
AE
  8
0
  2
BLOCK_9
 10
0.0
 20
0.0
 30
0.0
  0
INSERT
  5
B9
  8
0
  2
BLOCK_10
 10
0.0
 20
0.0
 30
0.0
  0
INSERT
  5
C4
  8
0
  2
BLOCK_11
 10
0.0
 20
0.0
 30
0.0
  0
INSERT
  5
CF
  8
0
  2
BLOCK_12
 10
0.0
 20
0.0
 30
0.0
  0
INSERT
  5
FA
  8
0
  2
BLOCK_13
 10
0.0
 20
0.0
 30
0.0
  0
INSERT
  5
105
  8
0
  2
BLOCK_14
 10
0.0
 20
0.0
 30
0.0
  0
INSERT
  5
110
  8
0
  2
BLOCK_15
 10
0.0
 20
0.0
 30
0.0
  0
INSERT
  5
11B
  8
0
  2
BLOCK_16
 10
0.0
 20
0.0
 30
0.0
  0
INSERT
  5
126
  8
0
  2
BLOCK_17
 10
0.0
 20
0.0
 30
0.0
  0
INSERT
  5
131
  8
0
  2
BLOCK_18
 10
0.0
 20
0.0
 30
0.0
  0
INSERT
  5
13C
  8
0
  2
BLOCK_19
 10
0.0
 20
0.0
 30
0.0
  0
INSERT
  5
147
  8
0
  2
BLOCK_20
 10
0.0
 20
0.0
 30
0.0
  0
INSERT
  5
152
  8
0
  2
BLOCK_21
 10
0.0
 20
0.0
 30
0.0
  0
INSERT
  5
15D
  8
0
  2
BLOCK_22
 10
0.0
 20
0.0
 30
0.0
  0
INSERT
  5
168
  8
0
  2
BLOCK_23
 10
0.0
 20
0.0
 30
0.0
  0
INSERT
  5
173
  8
0
  2
BLOCK_24
 10
0.0
 20
0.0
 30
0.0
  0
INSERT
  5
17E
  8
0
  2
BLOCK_25
 10
0.0
 20
0.0
 30
0.0
  0
INSERT
  5
189
  8
0
  2
BLOCK_26
 10
0.0
 20
0.0
 30
0.0
  0
INSERT
  5
194
  8
0
  2
BLOCK_27
 10
0.0
 20
0.0
 30
0.0
  0
INSERT
  5
19F
  8
0
  2
BLOCK_28
 10
0.0
 20
0.0
 30
0.0
  0
INSERT
  5
1AA
  8
0
  2
BLOCK_29
 10
0.0
 20
0.0
 30
0.0
  0
INSERT
  5
221
  8
0
  2
BLOCK_30
 10
0.0
 20
0.0
 30
0.0
  0
INSERT
  5
22C
  8
0
  2
BLOCK_31
 10
0.0
 20
0.0
 30
0.0
  0
INSERT
  5
237
  8
0
  2
BLOCK_32
 10
0.0
 20
0.0
 30
0.0
  0
INSERT
  5
242
  8
0
  2
BLOCK_33
 10
0.0
 20
0.0
 30
0.0
  0
INSERT
  5
258
  8
0
  2
BLOCK_35
 10
0.0
 20
0.0
 30
0.0
  0
INSERT
  5
263
  8
0
  2
BLOCK_36
 10
0.0
 20
0.0
 30
0.0
  0
INSERT
  5
279
  8
0
  2
BLOCK_38
 10
0.0
 20
0.0
 30
0.0
  0
INSERT
  5
284
  8
0
  2
BLOCK_39
 10
0.0
 20
0.0
 30
0.0
  0
INSERT
  5
28F
  8
0
  2
BLOCK_40
 10
0.0
 20
0.0
 30
0.0
  0
INSERT
  5
29A
  8
0
  2
BLOCK_41
 10
0.0
 20
0.0
 30
0.0
  0
INSERT
  5
2A5
  8
0
  2
BLOCK_42
 10
0.0
 20
0.0
 30
0.0
  0
INSERT
  5
2B0
  8
0
  2
BLOCK_43
 10
0.0
 20
0.0
 30
0.0
  0
INSERT
  5
2BB
  8
0
  2
BLOCK_44
 10
0.0
 20
0.0
 30
0.0
  0
INSERT
  5
2C6
  8
0
  2
BLOCK_45
 10
0.0
 20
0.0
 30
0.0
  0
INSERT
  5
2D1
  8
0
  2
BLOCK_46
 10
0.0
 20
0.0
 30
0.0
  0
INSERT
  5
2DC
  8
0
  2
BLOCK_47
 10
0.0
 20
0.0
 30
0.0
  0
INSERT
  5
2E7
  8
0
  2
BLOCK_48
 10
0.0
 20
0.0
 30
0.0
  0
INSERT
  5
2F2
  8
0
  2
BLOCK_49
 10
0.0
 20
0.0
 30
0.0
  0
INSERT
  5
2FD
  8
0
  2
BLOCK_50
 10
0.0
 20
0.0
 30
0.0
  0
INSERT
  5
308
  8
0
  2
BLOCK_51
 10
0.0
 20
0.0
 30
0.0
  0
INSERT
  5
313
  8
0
  2
BLOCK_52
 10
0.0
 20
0.0
 30
0.0
  0
INSERT
  5
31E
  8
0
  2
BLOCK_53
 10
0.0
 20
0.0
 30
0.0
  0
INSERT
  5
329
  8
0
  2
BLOCK_54
 10
0.0
 20
0.0
 30
0.0
  0
INSERT
  5
334
  8
0
  2
BLOCK_55
 10
0.0
 20
0.0
 30
0.0
  0
INSERT
  5
33F
  8
0
  2
BLOCK_56
 10
0.0
 20
0.0
 30
0.0
  0
INSERT
  5
34A
  8
0
  2
BLOCK_57
 10
0.0
 20
0.0
 30
0.0
  0
INSERT
  5
355
  8
0
  2
BLOCK_58
 10
0.0
 20
0.0
 30
0.0
  0
INSERT
  5
360
  8
0
  2
BLOCK_59
 10
0.0
 20
0.0
 30
0.0
  0
INSERT
  5
36B
  8
0
  2
BLOCK_60
 10
0.0
 20
0.0
 30
0.0
  0
INSERT
  5
376
  8
0
  2
BLOCK_61
 10
0.0
 20
0.0
 30
0.0
  0
INSERT
  5
381
  8
0
  2
BLOCK_62
 10
0.0
 20
0.0
 30
0.0
  0
INSERT
  5
38C
  8
0
  2
BLOCK_63
 10
0.0
 20
0.0
 30
0.0
  0
INSERT
  5
397
  8
0
  2
BLOCK_64
 10
0.0
 20
0.0
 30
0.0
  0
INSERT
  5
3A2
  8
0
  2
BLOCK_65
 10
0.0
 20
0.0
 30
0.0
  0
INSERT
  5
3AD
  8
0
  2
BLOCK_66
 10
0.0
 20
0.0
 30
0.0
  0
INSERT
  5
3B8
  8
0
  2
BLOCK_67
 10
0.0
 20
0.0
 30
0.0
  0
INSERT
  5
3C3
  8
0
  2
BLOCK_68
 10
0.0
 20
0.0
 30
0.0
  0
INSERT
  5
3CE
  8
0
  2
BLOCK_69
 10
0.0
 20
0.0
 30
0.0
  0
INSERT
  5
3D9
  8
0
  2
BLOCK_70
 10
0.0
 20
0.0
 30
0.0
  0
INSERT
  5
3E4
  8
0
  2
BLOCK_71
 10
0.0
 20
0.0
 30
0.0
  0
INSERT
  5
3EF
  8
0
  2
BLOCK_72
 10
0.0
 20
0.0
 30
0.0
  0
INSERT
  5
3F4
  8
0
  2
BLOCK_73
 10
0.0
 20
0.0
 30
0.0
  0
INSERT
  5
3F9
  8
0
  2
BLOCK_74
 10
0.0
 20
0.0
 30
0.0
  0
INSERT
  5
3FE
  8
0
  2
BLOCK_75
 10
0.0
 20
0.0
 30
0.0
  0
INSERT
  5
403
  8
0
  2
BLOCK_76
 10
0.0
 20
0.0
 30
0.0
  0
INSERT
  5
408
  8
0
  2
BLOCK_77
 10
0.0
 20
0.0
 30
0.0
  0
INSERT
  5
40D
  8
0
  2
BLOCK_78
 10
0.0
 20
0.0
 30
0.0
  0
INSERT
  5
412
  8
0
  2
BLOCK_79
 10
0.0
 20
0.0
 30
0.0
  0
INSERT
  5
417
  8
0
  2
BLOCK_80
 10
0.0
 20
0.0
 30
0.0
  0
INSERT
  5
41C
  8
0
  2
BLOCK_81
 10
0.0
 20
0.0
 30
0.0
  0
INSERT
  5
421
  8
0
  2
BLOCK_82
 10
0.0
 20
0.0
 30
0.0
  0
INSERT
  5
426
  8
0
  2
BLOCK_83
 10
0.0
 20
0.0
 30
0.0
  0
INSERT
  5
48C
  8
0
  2
BLOCK_8
 10
332.0541150550861
 20
297.0419367876937
 30
0.0
 50
180.0
  0
ENDSEC
  0
EOF
